Song name
# A B C D E F G H I J K L M N O P Q R S T U V W X Y Z

Presidents Of The Usa - Supermodel tab

fantastic song. there's another tab out there but i think it's wrong. this is the studio 
version from their album II. enjoy.
-k


love child of genghis kahn...

E|----------------------------|
B|----------------------------|
G|----------------------------|
D|--6--6----------6--6--------|
A|--4--4--8--6----4--4--8--6--|
E|--------6--4----------6--4--|


but that's impossible. yeah, she's super colossal.

E|----------------------------|
B|----------------------------|
G|----------------------------|
D|----------------------------|
A|--4--4--8--6----4--4--8--6--|
E|--2--2--6--4----2--2--6--4--|


supermodel... oh yeah

E|-----------------------------|
B|-----------------------------|
G|-----------------------------|
D|--3--3--4--4--6--6--6--6-----|
A|--1--1--2--2--4--4--4--4-----|
E|-----------------------------|


there's this lead part in the 'supermodel' chorus.

                                           not just a regular girl!
E|------------------------------------------------------------------|
B|------------------------------------------------------------------|
G|------------------------------------------------------------------|
D|--3--1--4--3------------------------------------6--8b--p6-----6v--|
A|------------------------1--2--------------6--8-------------8------|
E|------------------2--4--------------------------------------------|


and then this lick to end it.

E|-------------------------------------|
B|-------------------------------------|
G|-------------------------------------|
D|-----6--8--8p6-----6-----6--------6--|
A|--8-------------8-----8-----8--6--4--|
E|-------------------------------------|
                                                        http://www.guitartabcreator.com
Tap to rate this tab
 
# A B C D E F G H I J K L M N O P Q R S T U V W X Y Z