Song name
# A B C D E F G H I J K L M N O P Q R S T U V W X Y Z

Presidents Of The Usa - Dune Buggy tab

-----------------------------------------------------------------------------
                      DUNE BUGGY - Presidents of The USA
-----------------------------------------------------------------------------
Tabbed by: Lokkness

Ok we cover this song and get sounding very very close. You CAN play this
Along with the recording. Although the original is in Drop c# tuning
(C#-G#-C#-F#-A#-D# {this guy nails it - http://youtu.be/qAywbJFggkQ}) you
Can play in standard tuning with a Capo on the 4th fret (giving you an
open of G#, C#, F#, B, D#, G#).

It's a big note that this song is VERY bass heavy and driven, the guitar
definitely takes a back seat. Our bass play plays this on his low B string
to pull it back into the low tones. The bass distortion is awesome too :D!

Tuning: Standard - Capo 4th Fret (Tab takes the Capo at 0 {open})

INTRO:
|------------------------|
|------------------------|
|------------------------|
|------------------------| x 4
|--4^-4^-4^--8^h9^-9^-8--|
|------------------------|

VERSE:
|---------------------|
|---------------------|
|-2--3-4--4-9--9-9-7--|
|-2--3-4--4-9--9-9-7--| x4 - There are a couple of dead strums in hear.
|-0--1-2--2-9--7-7-5--|      Listen to the song and you'll hear them and
|-0--1-2--2-7--7-7-5--|      where to play them ;)


CHORUS
|--------------------|
|--------------------|
|-4---7---4---7---9--|
|-4---7---4---7---9--| - The first Chorus the guitar isn't even really played.
|-2---5---2---5---7--|   You only really can hear this played when it goes
|-2---5---2---5---7--|   to the heavier palm muted chorus 2nd and 3rd time.


OUTRO
|------------------------|
|------------------------|
|-2-2-2-2-2-2------------|
|-2-2-2-2-2-2------------| x 8
|-0-0-0-0-0-0------------|
|-0-0-0-0-0-0-5-5-5--7~--|

END
|-----------------------------------------------------------|
|-----------------------------------------------------------|
|-5-5-5-5-5-5-5-5-12-12-12-12-12-12-12-12-2-2-2-2-2-2-2-2-2-|
|-5-5-5-5-5-5-5-5-12-12-12-12-12-12-12-12-2-2-2-2-2-2-2-2-2-|
|-3-3-3-3-3-3-3-3-10-10-10-10-10-10-10-10-0-0-0-0-0-0-0-0-0-|
|-3-3-3-3-3-3-3-3-10-10-10-10-10-10-10-10-0-0-0-0-0-0-0-0-0-|


STRUCTURE:

Intro x1
Verse x1
Chorus x1
Intro x1
Verse x1
Chorus x1
Intro x2
Verse x1
Chorus x1
Outro x1
End x1
Tap to rate this tab
# A B C D E F G H I J K L M N O P Q R S T U V W X Y Z