Song name
# A B C D E F G H I J K L M N O P Q R S T U V W X Y Z

Presidents Of The Usa - Candy tab

-------------------------------------------------------------------------------
            CANDY - The Presidents of the United States of America
-------------------------------------------------------------------------------
Tabbed by: MarbleCakeRamen

Tuning: Drop Db (Db Ab Db Gb Bb Eb)

eb|-------------------------------------------|
Bb|-------------------------------------------|
Gb|-------------------------------------------|
Db|-----------3-------------------------------|
Ab|-3h5-5---5---5--5---3h5-5---5-----0--------|
Db|------------------------------3-5----------| x3

eb|-------------------------------------------|
Bb|-------------------------------------------|
Gb|-------------------------------------------|
Db|-------------------------------------------|
Ab|-3h5-5--5-3--------------0-3h5-------------|
Db|------------5-3-0----3-5-------------------| Repeat throughout
Tap to rate this tab
# A B C D E F G H I J K L M N O P Q R S T U V W X Y Z