Song name
# A B C D E F G H I J K L M N O P Q R S T U V W X Y Z

Presidents Of The Usa - Video Killed The Radio Star tab

Easiest way to play this - and play along with POTUS is to tune down 1/2 step and 
drop the Eb to a Db

INTRO:
e-|------------------------------------------|
B-|------------------------------------------|
G-|--------7-----7-----7-----7-----7-----7---|
D-|----7-7-7-7-7-7-7-7-7-7-7-7-7-7-7-7-7-7---|
A-|----5-5-5-5-5-5-5-5-5-5-5-5-5-5-5-5-5-5---|
E-|------------------------------------------|

VERSE 1
e-|----------------------------------------------------------|
B-|----------------------------------------------------------|
G-|----------------------------------------------------------|
D-|----7-7-----------------7-7-------------------------------|
A-|----5-5--2-2--5-5--7-7--5-5--2-2--5-5--7-7--4-4--5-5--7-7-|
E-|---------2-2--5-5--7-7-------2-2--5-5--7-7--4-4--5-5--7-7-|

e-|---------------|
B-|---------------|
G-|---------------|
D-|---------------|
A-|-4-4--5-5--7-7-|
E-|-4-4--5-5--7-7-|

VERSE 2
e-|----------------------------------------------------------|
B-|----------------------------------------------------------|
G-|----------------------------------------------------------|
D-|----7-7-----------------7-7-------------------------------|
A-|----5-5--2-2--5-5--7-7--5-5--2-2--5-5--7-7--4-4--5-5--7-7-|
E-|---------2-2--5-5--7-7-------2-2--5-5--7-7--4-4--5-5--7-7-|

e-|-------------------------------|
B-|-------------------------------|
G-|-------------------------------|
D-|-------------------------------|
A-|-4-4--5-5--7-7--4-4--5-5--7-7--|
E-|-4-4--5-5--7-7--4-4--5-5--7-7--|

CHORUS
e-|----------------------------------------------------------|
B-|----------------------------------------------------------|
G-|----------------------------------------------------------|
D-|----7-7--7-7--7---------------7-7--7-7--7-----------------|
A-|----5-5--5-5--5--5-5--5-5--5--5-5--5-5--5--5-5--5-5--5----|
E-|-----------------5-5--5-5--5---------------5-5--5-5--5----|

BRIDGE (in my mind and in my car)
e-|----------------------------------------------------------|
B-|----------------3--------------3---3-3-3----3--3-3-3----3-|
G-|----------------4--------------4---3-3-3----4--3-3-3----4-|
D-|----7-7--7-7--4-4--7-7--7-7--4-4---3-3-3--4-4--3-3-3--4-4-|
A-|----5-5--4-4--2-2--5-5--4-4--2-2----------2-2---------2-2-|
E-|----------------------------------------------------------|

SOLO
e-|--------------------------------------------------------------|
B-|--------------------------------------------------------------|
G-|--------------------------------------------------------7^----|
D-|----7/9-7-5-4-5-7--------7/9-7-5-4^---------7/9-7-5-4/5/7-----|
A-|--5--------------4-----5-------------5----5-------------------|
E-|-5-------------------5------------------5---------------------|

4^ strike then bend up and down 3x

SOLO
e-|--------------------------------------------|
B-|--------------------------------------------|
G-|--------------------------------------------|
D-|----5--/9----0--/7-----5-7-5----------------|
A-|--5--------0---------5-==------7-9-5-9-5-7--|
E-|-5--------0---------5---==-----7-9-5-9-5-7--|
Tap to rate this tab
 
# A B C D E F G H I J K L M N O P Q R S T U V W X Y Z