Song name
# A B C D E F G H I J K L M N O P Q R S T U V W X Y Z

Presidents Of The Usa - Dune Buggy tab

Presidents of the United States of America- Dune Buggy

intro/pre-verse
e-----------------------------------|
B-----------------------------------|
G-----------------------------------|
D---------------7b7.5--7.5r7-7-6----|
A-7b7.5---7.25----------------------|
E-----------------------------------|

slow bends. reference the recording for exact pitch.

verse
e-------------------------|
B-------------------------|
G-------------------------|
D-6---6-8---8------8-8-6--|
A-4---4-6---6-6----6-6-4--|
E-------------4-----------|

"little blind spider.."

chorus

e-----------------------|
B-----------------------|
G-----------------------|
D-8----11----8----11-13-|
A-6----9-----6----9--11-|
E-----------------------|

"little dune buggy.. in the sand..."

strummed even quarter notes after the first chorus.
sounds like only bass on the first chorus in the recording.

outro- heavy alternative to intro/pre-verse

e-----------------------------------|
B-----------------------------------|
G-----------------------------------|
D----------------7b7.5---7.5r7-7-6--|
A-7b7.5---7.5----7-------7---7-7-7--|
E-9-------9-------------------------|
                "little-blue-dune-buggy.."

you could play this softly for the intro, too.

I think the outro plays the same notes, but has that choppy rhythm that goes with the 
'little blue dune buggy' vocals


last time

e-----------------------------------------------------------|
B-----------------------------------------------------------|
G-----------------------------------------------------------|
D----------------7--7-7--7-7--7-7--11--11-11--11-11--11-11--|
A-7b7.5---7.5----7--7-7--7-7--7-7--9---9--9---9--9---9--9---|
E-9-------9-------------------------------------------------|
                 LITTLE............BLUE...............DUNE..

e-------------------|
B-------------------|
G-6-6-6-6-6-6-6-6-6-|
D-6-6-6-6-6-6-6-6-6-|
A-4-4-4-4-4-4-4-4-4-|
E-------------------|
  BUGGY.........
Tap to rate this tab
# A B C D E F G H I J K L M N O P Q R S T U V W X Y Z