Guitaretab - guitar tabs
Song name
# A B C D E F G H I J K L M N O P Q R S T U V W X Y Z

Presidents Of The Usa - Wither Without You tab

--------------------------------
--------------------------------
--------------------------------
-----2/5-55-5-------------------
-5-5----------5/7---------------
--------------------------------
[ Tab from: http://www.guitaretab.com/p/presidents-of-the-usa/49556.html ]
--------------------------------
--------------------------------
--------------------------------
-----2/5-55-5-------------------
-5-5----------5/3---------------
--------------------------------

the chorus is just
--------------------------------
--------------------------------
--------------------------------
--10-10-10-10-10-10-10----------
--------------------------------
--------------------------------

and thats it, just repeat the verse throught the
weird keyboard solo
Related for Wither Without You tab
Wither Without You chords by Presidents Of The Usa