Song name
# A B C D E F G H I J K L M N O P Q R S T U V W X Y Z

Presidents Of The Usa - Vestina tab

SOMEONE had to tab this outtake of a song that made it on the album

----------------------------------------|
----------------------------------------|
-10-10-8-8-10-10-8-8-4-4-6-6-4-4-6-6----|
-10-10-8-8-10-10-8-8-4-4-6-6-4-4-6-6----|
----------------------------------------|
----------------------------------------|
vestina,vestina
your advertising adjency folded today
vestina,vestina
the future is brighter anyway

----------------------------------------|
----------------------------------------|
-8-6-8-6--6-4-6-4-----------------------|
-8-6-8-6--6-4-6-4-----------------------|    ~hit each note 4 times.
----------------------------------------|
----------------------------------------|
couse if your gonna sell it
sell it to me
if you gonna sell it
its for free
if your gonna sell it
sell it directly to may

----------------------------------------|
----------------------------------------|
-6-9-11---------------------------------|
-6-9-11---------------------------------|
-4-7-9----------------------------------|
----------------------------------------|
directly to may!

~hilarious solo from jason~

----------------------------------------|
----------------------------------------|
--6---------9-----11--------------------|
--6(8X)-----9(4X)-11(4X)----------------|
--4---------7-----9---------------------|
----------------------------------------|

thats it....great song.
Tap to rate this tab
# A B C D E F G H I J K L M N O P Q R S T U V W X Y Z