Song name
# A B C D E F G H I J K L M N O P Q R S T U V W X Y Z

Presidents Of The Usa - Tiki Lounge God tab

*Drop D*

--------------------------------|
--------------------------------|
--------------------------------|
--------------------------------|
----4-4----4-4-----4-4---4--4---|
0-0----5-5-----3-3------5-------|
i had a girl and she did me wrong
i didnt let that kinda shit go on too long
split the clouds and divided the sea
showed that evil girl how nasty the tiki god can be
she didnt call no more nor bother me
that little tiki god made sure i lived in peace
one day i read they found her body in a river,
tiki god, wow! you make me shake and make me shiver alright

-----------------------------|
-----------------------------|
-----------------------------|
-----------------------------|
-5-5-544-2----5-5-5-66-7-----|
-----------------------------|
i gota tiki god
said me
i gota tiki god

-----------------------------|
-----------------------------|
----------5-6-7-9------------|
-----5-6-7-------------------|
--5-7------------------------|
-----------------------------|

------------------------------|
------------------------------|
-12B-11--9-11b---12b-11--9-6--|b
------------------------------|
------------------------------|
------------------------------|
na na nana naa naa...

ends with:

-----------------------------|
-----------------------------|
-----------------------------|
-----------------------------|
--5--3~----------------------|
-----------------------------|
Tap to rate this tab
# A B C D E F G H I J K L M N O P Q R S T U V W X Y Z