Song name
# A B C D E F G H I J K L M N O P Q R S T U V W X Y Z

Presidents Of The Usa - Love Everybody tab

intro:
---------------------------------|
---------------------------------|
---------------------------------|
-2242----------------------------|
-2242----------------------------|
-0020-2/5------------------------|

?"pre-verse"?
----------------------------------|
----------------------------------|
-12b~---8b~----12b~--12h15-12-8b~-|
----------------------------------|
----------------------------------|
----------------------------------|

---------------------------------|
---------------------------------|
-8-8-8-8-8-8-8-8-8---------------|   hit that about a thousand times
---------------------------------|     slightly palm muted
---------------------------------|
---------------------------------|

here and there it does this
---------------------------------|
---------------------------------|
-8789876/8-----------------------|
---------------------------------|
---------------------------------|
---------------------------------|

right before going back into the chorus:
---------------------------------|
---------------------------------|
---------------------------------|
-2-2-2-2-2-2-2-2-----------------|
-2-2-2-2-2-2-2-2-----------------|
-0-0-0-0-0-0-0-0-----------------|

towards the end:
---------------------------------|
---------------------------------|
-7*--9*--------------------------|
-7*--9*--------------------------|    *=hit 16X
-5*--7*--------------------------|
love everybody,love everybody....


---------------------------------
Tap to rate this tab
 
# A B C D E F G H I J K L M N O P Q R S T U V W X Y Z