Song name
# A B C D E F G H I J K L M N O P Q R S T U V W X Y Z

Presidents Of The Usa - Meanwhile Back In The City tab

-------------------------------------------------------------------------------
			     meanwhile back in the city
                             The Presidents of the usa
-------------------------------------------------------------------------------
Tabbed by: Adam Warburton
Written by: Chris Ballew
Album: Freaked out and small
Tuning: Standard. E,A,D,G,B,e

 h  hammer-on
 p  pull-off


e|-----------------------|
B|-----------------------|
G|-----------------------|
D|----4-4p2--------------|
A|----------4-3-2--------|
E|--2-------------5--2---| Repeat

e|-------------------------------------------------|
B|-------------------------------------------------|
G|-------------------------------------------------|
D|-------------------------------------------------|
A|----------2------------------------------2-------|
E|--2---2h5---2-----2---2h5--2-----2---2h5---2-----|

e|-------------------------|
B|-------------------------|
G|----------------------3--|
D|----4-4p2-------------4--|
A|----------4-3-2-------4--|
E|--2-------------5--2--2--|

e|-----------------------|
B|-----------------------|
G|--3------1-----6----8--|
D|--4------2-----7----9--|
A|--4------2-----7----9--|
E|--2------0-----5----7--|

e|---------------------|
B|---------------------|
G|--3----1----666778---|
D|--4----2----777889---|
A|--4----2----777889---|
E|--2----0----555667---|

e|-----------------------------------------------------------------------------|
B|-----------------------------------------------------------------------------|
G|-----------------------------------------------------------------------------|
D|-----------------------------------------------------------------------------|
A|-----------------------------------------------4-2----------------------4-2--|
E|--2-----2-----2-----2------2h0-2h0-2h0-2h0-2h0------2h0-2h0-2h0-2h0-2h0------|

e|---------------------------------------------------------------------------|
B|---------------------------------------------------------------------------|
G|---------------------------------------------------------------------------|
D|-----------4-2-4-----------4-2-4---4-2-4---4-2-4---------------------------|
A|-4-444-444-------4-444-444-------4-------4-------4-444-444-4-3-2-----------|
E|-----------------------------------------------------------------5---------|


===============================================================
Tap to rate this tab
# A B C D E F G H I J K L M N O P Q R S T U V W X Y Z