Song name
# A B C D E F G H I J K L M N O P Q R S T U V W X Y Z

Presley Elvis - Burning Love tab

-------------------------------------------------------------------------------
			     Burning Love - Elvis Presley
-------------------------------------------------------------------------------
Tabbed by: Ryan Gillam
Email: ryangillam22@hotmail.co.uk

Tuning: DADGBE

There seemed to be no tabbed versions of this great song on here, only chords so here we go :)

e|--2--------2-----2--------7--7--5--5--3--3--3--3--3--3--3/-|
B|--3--3-----3-----3-----3--7--7--5--5--3--3--3--3--3--3--3/-|
G|--2--2--4--2--2--3--4--2--7--7--6--6--4--4--4--4--4--4--4/-|
D|--0--0--0--0--0--0--0--0--9--9--7--7--5--5--5--5--5--5--5/-|
A|-----0--0-----0-----0--------------------------------------|
E|--------------0-----0--------------------------------------|

e|--7--7--7--5--5--5--3-|
B|--7--7--7--5--5--5--3-|
G|--7--7--7--6--6--6--4-|
D|--9--9--9--7--7--7--5-|
A|----------------------|
E|----------------------|

| /  slide up
| \  slide down
| h  hammer-on
| p  pull-off
| ~  vibrato
| +  harmonic
| x  Mute note
===============================================================================
Tap to rate this tab
# A B C D E F G H I J K L M N O P Q R S T U V W X Y Z