Song name
# A B C D E F G H I J K L M N O P Q R S T U V W X Y Z

Presley Elvis - Thats Alright Mama tab

------}                                    (H)= Hammer on
------}
-2}
-2}
------}
------}
A 5 (A)

   A A A     INTRO
d{---------------2------}
a{-------3-(H)4---3-(H)4} X4

(BRIDGE)
----------9}
----------9}
------9-7-9}
---9--9-7-9}
-7--------7}
-----------}X4

(VERSE)
{Bass Riff (only 1 i know 4 the song}
------------------}
-3-3-3-3-3-3-3---3}
--------------4-5-}
------------------}

(CHOURS)
---DDD
G{----------3-------}
D{----4-(H)5-4-(H)-5}X2

-5-5-5----------------}
-0-0-0----------------}
-2-2-2--------2-------}
-------3-(H4)--3-(H4)-}
----------------------}
----------------------}X2

(SOLO)
UNKNOWN

ORDER:
Intro
Brdge
Chours
Bridge
Verse
Chours
Bridge
Solo
Verse
Chours
Tap to rate this tab
# A B C D E F G H I J K L M N O P Q R S T U V W X Y Z