Song name
# A B C D E F G H I J K L M N O P Q R S T U V W X Y Z

Pressive - To Me tab

Artist: Pressive
Song: To Me

Tabbed by: javo_rockstar

Mail: javo_rockstar@hotmail.com

tuning
gtr.1 Javo (low to high) D, A, d, G, B, E
gtr.2 Leo (low to high) D, A, d, G, B, E

Intro
gtr.1 Javo
||--------------------------------------------||
||--------------------------------------------||
||--------------------------------------------|| x2
||--------------------------------------------||
||--3---------------------3-------------------||
||----0-0--0-3-00-0--0-0----0-0-3-00-0-0-0-0--||

Intro
gtr.1 Javo
gtr.2 Leo
||--------------------------------------------||
||--------------------------------------------||
||--------------------------------------------|| x2
||--5-0-0--0-3-00-0--0-0--5-0-0-3-00-0-0-0-0--||
||--3-0-0--0-3-00-0--0-0--3-0-0-3-00-0-0-0-0--||
||----0-0--0-3-00-0--0-0----0-0-3-00-0-0-0-0--||


Verse
gtr.1 Javo
||--ey--------------------------------------------------------------------------|
||------------------------------------------------------------------------------|
||------------------------------------------------------------------------------|
||------------------------------------------------------------------------------|
||---------------------------3------5----------------------------3--------------|
||-0-000000-000000-0000-0h3h5-5-0003---0-000000-000000-0000-0h3h5-5-0003-7------|

|-------------------------------------------------------------------||
|-------------------------------------------------------------------||
|-------------------------------------------------------------------||
|-------------------------------------------------------------x3-2--||
|----------------------------3------5-------------------------x3-2--||
|--0-000000-000000-0000-0h3h5-5-0000---0-000000-000000-000000-x3-2--||


Chorus
gtr.1 Javo
||------------------------------------------------------------------------|
||------------------------------------------------------------------------|
||------------------------------------------------------------------------|
||--5----10-10--0------10-10--5------10-10--0------12-10--5-----12-10--7--|
||--5----8--7---0------8--7---5------8--7---0-----------------------------|
||--5----8--7---0------8--7---5------8--7---0------12-10--5-----12-10--7--|

gtr.2 Leo
||------------------------------------------------------------------------|
||------------------------------------------------------------------------|
||------------------------------------------------------------------------|
||--5----8--7---0------8--7---5------8--7---0------8--7---5-----8--7---0--|
||--5----8--7---0------8--7---5------8--7---0------8--7---5-----8--7---0--|
||--5----8--7---0------8--7---5------8--7---0------8--7---5-----8--7---0--|


gtr.1 Javo
--------------------------------||
--------------------------------||
--------------------------------||
--12-10--5-----8--10--12---14^--||
--------------------------------||
--12-10--5-----8--10--12---14^--||

gtr.2 Leo
--------------------------------||
--------------------------------||
--------------------------------||
--8--7---5-----8--7---0---------||
--8--7---5-----8--7---0---------||
--8--7---5-----8--7---0---------||


Verse
gtr.1 Javo
||---------------------------------------------------||
||---------------------------------------------------||
||---------------------------------------------------||  x2
||------------------------------------7--7--6--6--6--||
||----------------------------------888888877777777--||
||--0-0-0h3-0-0h2-0-0h3-0-0h2-0-0h3------------------||
PM  . .     .     .     .     .     .. .. .. .. ..

gtr.1 Javo
||--------------------------------------------------------------------||
||--------------------------------------------------------------------||
||--------------------------------------------------------------------||  x4
||--------------------------------------------15-15-15-15-14-14-14-14-||
||--------------------------------------------12-12-12-12-11-11-11-11-||
||--0-0-12h15-0-12h14-0-12h15-0-12h14-0-12h15-------------------------||


Chorus x1


Interlude
gtr.1 Javo
||---------------------------------------------------||
||---------------------------------------------------||
||---------------------------------------------------||  x2
||------12---3----8---5-----------8---7---3---0------||
||----13----5---10---7---7------10---8---5---0--0-0--||
||--12-----3---8----5---5--5-7-8----7---3---0--0-0---||
pm  . .    ..  . .  ..  .  . . . .  ..  ..  .. . .

gtr.2 Leo (w/flanger)
||---------------------------------------------------||
||---------------------------------------------------||
||--10/////-----------9///////---------------9/////--||  x2
||--12/////-----------12//////---------------11////--||
||---------------------------------------------------||
||---------------------------------------------------||



gtr.1 Javo
||----------------------------------------------------||
||-------------------------------------------------3--||
||-------------------------------------------------2--||  x2
||--12----3----8----7------5-7-8----7----3----0----0--||
||--------------------------------------------0----0--||
||--12----3----8----7------5-7-8----7----3----0----0--||

gtr.2 Leo (w/flanger)
||----------------------------------------------------||
||----------------------------------------------------||
||--10/////---------9///////------------------9/////--||  x2
||--12/////---------12//////------------------11////--||
||----------------------------------------------------||
||----------------------------------------------------||

Final Chorus
gtr.1 Javo
||-----------------------------------------------------|
||-----------------------------------------------------|
||--7--------10-------------9---------12---------10-9--|
||-----------------------------------------------------|
||--5--------8--------------7---------10---------8--7--|
||-----------------------------------------------------|

gtr.2 Leo
||-----------------------------------------------------|
||-----------------------------------------------------|
||-----------------------------------------------------|
||--0--------3--------------8---------5------------7---|
||--0--------3--------------8---------5------------7---|
||--0--------3--------------8---------5------------7---|


gtr.1 Javo
--------------------------------------------------|
--------------------------------------------------|
--10----------14------12-14-15---------17-----18--|
--------------------------------------------------|
--8-----------12------10-12-13---------15-----16--|
--------------------------------------------------|

gtr.2 Leo
--------------------------------------------------|
--------------------------------------------------|
--------------------------------------------------|
--0-----------3--------------8---------10-----11--|
--0-----------3--------------8---------10-----11--|
--0-----------3--------------8---------10-----11--|


gtr.1 Javo
------------------------------------------------|
------------------------------------------------|
--19----17-15------14-----15--------14-15-10-9--|
------------------------------------------------|
--17----15-13------12-----13--------12-10-8--7--|
------------------------------------------------|

gtr.2 Leo
------------------------------------------------|
------------------------------------------------|
------------------------------------------------|
--0--------3--------------8---------5-------7---|
--0--------3--------------8---------5-------7---|
--0--------3--------------8---------5-------7---|
gtr.1 Javo
----------------------------------------------------||
----------------------------------------------------||
--10----------9-------10-12-14-15-------18----------||
----------------------------------------------------||
--8-----------7-------8--10-12-13-------16----------||
----------------------------------------------------||

gtr.2 Leo
----------------------------------------------------||
----------------------------------------------------||
----------------------------------------------------||
--0-----------3----------------8---------10-----11--||
--0-----------3----------------8---------10-----11--||
--0-----------3----------------8---------10-----11--||


Outro
gtr.1 Javo
gtr.2 Leo
||---------------------------||
||---------------------------||
||---------------------------|| x4
||---------------------------||
||---------------------------||
||--0-0-0---0-0-0--0--0-0-0--||

gtr.1 Javo
 (palm mute while opening strings slowly)
||------------------------------------------------------------------||
||------------------------------------------------------------------||
||----------------------------------------------777777777777777777--||
||------------------------------------------------------------------||
||-----------------------------55555555555555555555555555555555555--||
||--00000000000000000000000000000000000000000000000000000000000000--||
Pm  ...........................

gtr.2 Leo
 (palm mute while opening strings slowly)
||------------------------------------------------------------------||
||------------------------------------------------------------------||
||------------------------------------------------------------------||
||----------------------------------------------000000000000000000--||
||----------------------------------------------000000000000000000--||
||--00000000000000000000000000000000000000000000000000000000000000--||
Pm  ............................................


gtr.1 Javo
gtr.2 Leo
||-------------------------------------||
||-------------------------------------||
||-------------------------------------|| x4
||--3-0-0-06-00-0000---1-0-01-00-0000--||
||--3-0-0-06-00-0000---1-0-01-00-0000--||
||--3-0-0-06-00-0000---1-0-01-00-0000--||
Pm    . . .  .. ....     . .  .. ....


gtr.1 Javo (open sring)
||-----------------------------------  -------------------------------------|
||-----------------------------------x2-------------------------------------|x4
||-----------------------------------  -------------------------------------|
||-----------------------------------  -------------------------------------|
||-----------------------------------  -------------------------------------|
||-3-0-0-06-00-0000---1-0-01-00-0000-  -15-0-0-018-00-0000-13-0-013-00-0000-|


gtr.2 Leo (open sring)
||----------------------------------------||
||----------------------------------------|| x6
||----------------------------------------||
||----------------------------------------||
||----------------------------------------||
||--3-0-0-06-00-0-00---1-0-01-00-0-0-0-0--||
Tap to rate this tab
# A B C D E F G H I J K L M N O P Q R S T U V W X Y Z