Song name
# A B C D E F G H I J K L M N O P Q R S T U V W X Y Z

Pressive - No More Oxygen tab

Artist: PRESSIVE
Song: No More Oxygen

Tabbed by: javo_rockstar

Mail: javo_pressive@hotmail.com

tuning
gtr.1 Javo (low to high) C#,G#,c#,F#,A#,D#
gtr.1 Leo (low to high) C#,G#,c#,F#,A#,D#

Verse
gtr.1 Javo
||-------------------------------|
||-------------------------------|
||-------------------------------| x2
||--5h7----5h7----5h7-----3-3-3--|
||--5------5------5-------3-3-3--|
||--5--55555--55555--5555-3-3-3--|
pm     ....   ....   ....

gtr.2 Leo
||---------------------------|
||---------------------------|
||----3---3---3---3---2---2--| x2
||--5---5---5---5---5---5----|
||---------------------------|
||---------------------------|
pm  . . . . . . . . . . . .   (semi palmuted)

gtr.1 Javo
gtr.2 Leo
----------------------------------------------------------------||
----------------------------------------------------------------||
----------------------------------------------------------------||
--1-1--1--1-3^--1-1--1--1-3^--1-1--1--1-3^--1-1--1--1--3--3--3--||
--1-1--1--1-----1-1--1--1-----1-1--1--1-----1-1--1--1--3--3--3--||
--1-1--1--1-----1-1--1--1-----1-1--1--1-----1-1--1--1--3--3--3--||


Chorus
gtr.1 Javo
||-----6--5--------6--5--------6--5--------6--8--5--|
||-----------6-----------6-----------6--------------|
||--7-----------7-----------7-----------7-----------|
||--------------------------------------------------|
||--------------------------------------------------|
||--------------------------------------------------|

gtr.2 Leo
||--------------------------------------------------|
||--------------------------------------------------|
||--------------------------------------5-----------|
||--5-----------8-----------1-----------3-----------|
||--5-----------8-----------1-----------------------|
||--5-----------8-----------1-----------------------|


gtr.1 Javo
-----6--5--------6--5--------6--5--------6--8--5--||
-----------6-----------6-----------6--------------||
--7-----------7-----------7-----------7-----------||
--------------------------------------------------||
--------------------------------------------------||
--------------------------------------------------||

gtr.2 Leo
--------------------------------------------------||
--------------------------------------------------||
--------------------------------------5-----------||
--5-----------8-----------1-----------3-----4-----||
--5-----------8-----------1-----------------4-----||
--5-----------8-----------1-----------------4-----||


Verse x1

Chorus x2

Interlude
gtr.1 Javo
gtr.2 Leo
||---------------------------------------------------------|
||---------------------------------------------------------|
||---------------------------------------------------------| x2
||--1-1--1--1------0-0--0--0------5----7----8----10--8--7--|
||--1-1--1--1--3^--0-0--0--0--5^--5----7----8----10--8--7--|
||--1-1--1--1------0-0--0--0------5----7----8----10--8--7--|
pm  . .  .  .      . .  .  .

------------------------------------------||
------------------------------------------||
------------------------------------------||
--1-1--1--1------0-0--0--0--------5-------||
--1-1--1--1--3^--0-0--0--0--5^----5-------||
--1-1--1--1------0-0--0--0--------5-------||
pm. .  .  .      . .  .  .
Tap to rate this tab
 
# A B C D E F G H I J K L M N O P Q R S T U V W X Y Z