Song name
# A B C D E F G H I J K L M N O P Q R S T U V W X Y Z

Pressure Point - The Mood That Drives Me tab

Band name: Pressure Points
Song name: The mood that drives me

Intro verse------------------------------------|
-----------------------------------------------|
-----------------------------------------------|
---2---------2---------0---0-------------------|  X4
--2---0h2---2---0h2---2---2---0h2--------------|
-0---------0---------3---3---------------------|

-----------------------------------------------|
-----------------------------------------------|
-----------------------------------------------|
---2-------2-----------5-------5---------------|  X2
--2-2-----2-2---------5-5-----5-5--------------|
-0---0---0-----------3-------2-----------------|

distort&palm mute------------------------------|
-----------------------------------------------|
-----------------------------------------------|
-----------------------------------------------|
-22222222---5555---7777------------------------|
-00000000---3333---5555------------------------|

chorus-----------------------------------------|
-----------------------------------------------|
-----------------------------------------------|
--------777x--------x5xx5----------777x--------| X4
-999x---555x--555x--x3xx5----999x--555x--3xx3--|
-777x---------333x-----------777x--------1xx1--|

Bridge-----------------------------------------|
-----------------------------------------------|
-----------------------------------------------|
------------------------77777------------------| X4
-555x--777x--222x-------55555------------------|
-333x--555x--000x------------------------------|
Tap to rate this tab
# A B C D E F G H I J K L M N O P Q R S T U V W X Y Z