Song name
# A B C D E F G H I J K L M N O P Q R S T U V W X Y Z

Pretenders - Middle Of The Road tab

This is the lead guitar that no one tabbed. Well...at least I think no one tabbed it.

Main Riff
e|---------------------------------|
B|---------------------------------|
G|-----------------------0---------|
D|--------0--------0-4-7-----------|
A|--0-4-7------------------3-2-0---|
D|----------5-4-0------------------|
    ^Starts an eighth note after the bassist hits his first note (A).
     I think a chorus effect is used also.

Post-Solo Bridge
e|------------------|
B|-5--5-7--7-8-8----|
G|-6--6-7--7-9-9----|
D|------------------|
A|------------------|
D|------------------|

*~Saif~* <-- Lol...Isn't that gay? Well, there's everything BUT the solo. I could've
it but I don't feel like it even though I have no life as I am a college dropout. Khuda Hafiz.
November 23, 2006 4:59 AM
Intros and solos aren't much welcomed here? Screw you ultimate-guitar.com!
Tap to rate this tab
# A B C D E F G H I J K L M N O P Q R S T U V W X Y Z