Song name
# A B C D E F G H I J K L M N O P Q R S T U V W X Y Z

Pretenders - Dont Get Me Wrong tab

E--------------------------------------|
B----1/10-/5-------1/10/5--------------|
G--0------/5-----0-----/5--------------|
D--2-2/10--------2-2/10----------------|
A--------------------------------------|
E--------------------------------------|

E--------------------------------------|
B----1/10---6~~----8h6-5---6-----------|
G--0--------7~~--~7------7-------------|
D--2-2/10-----------------------3h2h0--|
A--------------------------------------|
E--------------------------------------|

E--------------------------------------|
B----1/10-/5-------1/10/5--------------|
G--0------/5-----0-----/5--------------|
D--2-2/10--------2-2/10----------------|
A--------------------------------------|
E--------------------------------------|

E--------------------------------------|
B----1/10---6~~------------------------|
G--0--------7~~------------------------|
D--2-2/10------------------------------|
A--------------------------------------|
E--------------------------------------|

E-------3--1-0---1---------------------------|
B-----0--------3----3------------------------|
G---0-----------------0----------------------|
D----------------------------3x-2h0----------|
A--------------------------------------------|
E--3-----------------------------------------|

Riff 3:26
E--------------------------------------|
B--------------------------------------|
G---------2~~--------------------------|
D-------2------------------------------|
A--0--3--------------------------------|
E--------------------------------------|

final

E--------------------------------------|
B--------------------------------------|
G----------------------2~~-------------|
D-----2------2-----2---2~~-------------|
A-0-3----0-3---0-3---------------------|
E--------------------------------------|


Enjoy

www.youtube.com/morgangc
Tap to rate this tab
 
# A B C D E F G H I J K L M N O P Q R S T U V W X Y Z