Song name
# A B C D E F G H I J K L M N O P Q R S T U V W X Y Z

Pretenders - English Roses tab

  Q   E E  E E E E   E   E   E   H    E
|------------------|--------------------|
|------------------|--------------------|
|------------2-4-2-|-4b6-4b6-4b6-2------|
|---------/4-------|------------------2-|
|----/7-7----------|--------------------|
|------------------|--------------------|


  E E E   E Q    E E   Q  Q    E E E E   +Q   Q    E E E E
|--------------------|-----------------|-----------5---------|
|---------5----------|-----------------|-------------2-------|
|---2-4b6---4b6r=2---|----4b6--2---2-2-|-(2)--4b6------4-2---|
|-4----------------2-|-----------4-----|---------------------|
|--------------------|-----------------|---------------------|
|--------------------|-----------------|---------------------|


  E   E   E   E   E   E   E   E   +E  E Q    S S E E E
|-------------------------------|----------------------|
|-2---2---2---2---2---2---2-----|----------------------|
|-4b6-4b6-4b6-4b6-4b6-4b6-4b6-4-|-(4)-2-4b6--4-2---2---|
|-------------------------------|----------------4---2-|
|-------------------------------|----------------------|
|-------------------------------|----------------------|


  Q  E.   S E E E E   E E E E +H
|-------------------|--------------||
|-------------------|--------------||
|----4b6--4-2-------|-------2-(2)--||
|-------------4-----|---2-4--------||
|---------------2-3-|-4------------||
|-------------------|--------------||

Bm       D
  Just before it rains 
A
  the wind whips 'round the balcony 
Bm        D         A
  and the sky closes on the english roses 
Bm      D
and she'll be pacin' 
A                                             Bm
  'round and 'round and 'round and 'round her room 
      D              A                      Bm
these storms always find here to remind her
Tap to rate this tab
# A B C D E F G H I J K L M N O P Q R S T U V W X Y Z