Song name
# A B C D E F G H I J K L M N O P Q R S T U V W X Y Z

Pretenders - Tattooed Love Boys tab

tattoed love boys- pretenders-------------------------------------------------------------------------------
Tabbed by: ironmaiden13
Email: reptilelord12@aim.com

Tuning: standard

Just saying that this song has lots of effects. Most of the song wont sound like it much 
effects soo.. yeah


                        intro:
E|----9------10-------------------------------------------------------------|
B|--10-----11----11---------------------------------------------------------|
G|-9-----12----12---x2------------------------------------------------------|
D|--------------------------------------------------------------------------|
A|--------------------------------------------------------------------------|
E|--------------------------------------------------------------------------|

                            verse:
E|-----9-----10-------------------------------------------------------------|
B|--10-----11----11---------------------------------------------------------|
G|-9-----12----12---x4------------------------------------------------------|
D|--------------------------------------------------------------------------|
A|--------------------------------------------------------------------------|
E|--------------------------------------------------------------------------|


                           chorus:
E|--------------------------------------------------------------------------|
B|--------------------------------------------------------------------------|
G|--------------------------------------------------------------------------|
D|---333---333---333---333-5-666-5-666-5-666-5-666--------------------------|
A|---333---333---333---333-5-666-5-666-5-666-5-666--------------------------|
E|-0-111-0-111-0-111-0-111-3-444-3-444-3-444-3-444-x4-----------------------|


                           Verse:

E|-----9-----10-------------------------------------------------------------|
B|--10-----11----11---------------------------------------------------------|
G|-9-----12----12---x4------------------------------------------------------|
D|--------------------------------------------------------------------------|
A|--------------------------------------------------------------------------|
E|--------------------------------------------------------------------------|


                           chorus:
E|--------------------------------------------------------------------------|
B|--------------------------------------------------------------------------|
G|--------------------------------------------------------------------------|
D|---333---333---333---333-5-666-5-666-5-666-5-666--------------------------|
A|---333---333---333---333-5-666-5-666-5-666-5-666--------------------------|
E|-0-111-0-111-0-111-0-111-3-444-3-444-3-444-3-444-x4-----------------------|


                           Bridge:
E|----------------------------------------------------------------------------------|
B|----------------------------------------------------------------------------------|
G|----------------------------------------------------------------------------------|
D|-5-4---------555-5555----777-7777-----6b---555-5555-----4b------------------------|
A|-3x2-4545----555-5555----777-7777-6b6b--6b-555-5555-4b4b--4b--777-7777------------|
E|----x2323-x3-333-3333-x2-555-5555----------333-3333-----------555-5555------------|

                         bridge continued.....
E|-0-15-00-15-00-18b----------15-00-17-00-15-00-17-00-15-00-----------------|
B|--------------------------------------------------------------------------|
G|--------------------------------------------------------------------------|
D|--------------------------------------------------------------------------|
A|--------------------555-5555--------------------------------777-7777------|
E|--------------------333-3333--------------------------------555-5555------|

                         bridge ending:
E|--------------------------------------------------------------------------|
B|--------------------------------------------------------------------------|
G|--------------------------------------------------------------------------|
D|-----77777777-------------------------------------------------------------|
A|-----77777777-555-5555----------------------------------------------------|
E|-3b--55555555-333-3333-12\------------------------------------------------|

                        beggining of verse:
E|----9------10-------------------------------------------------------------|
B|--10-----11----11---------------------------------------------------------|
G|-9-----12----12----x2-----------------------------------------------------|
D|--------------------------------------------------------------------------|
A|--------------------------------------------------------------------------|
E|--------------------------------------------------------------------------|

                             Verse:
E|-----9-----10-------------------------------------------------------------|
B|--10-----11----11---------------------------------------------------------|
G|-9-----12----12---x4------------------------------------------------------|
D|--------------------------------------------------------------------------|
A|--------------------------------------------------------------------------|
E|--------------------------------------------------------------------------|

                             chorus:
E|--------------------------------------------------------------------------|
B|--------------------------------------------------------------------------|
G|--------------------------------------------------------------------------|
D|---333---333---333---333-5-666-5-666-5-666-5-666--------------------------|
A|---333---333---333---333-5-666-5-666-5-666-5-666--------------------------|
E|-0-111-0-111-0-111-0-111-3-444-3-444-3-444-3-444-x4-----------------------|

                             Outro:

E|----9------10--------------------------------------------------------------|
B|--10-----11----11----------------------------------------------------------|
G|-9-----12----12------------------------------------------------------------|
D|------------------5\-------------------------------------------------------|
A|------------------5\-------------------------------------------------------|
E|------------------3\-------------------------------------------------------|


enjoy
its not totally correct because of all the effects but it's the best I can do
Tap to rate this tab
# A B C D E F G H I J K L M N O P Q R S T U V W X Y Z