Song name
# A B C D E F G H I J K L M N O P Q R S T U V W X Y Z

Pretty Boy Floyd - I Love The Way You Made Me tab

H         H        H        E  Q    Q       H         H
E||-------------------------------------------|---------------------|
B||-------------------------------------------|---------------------|
G||-------------------------------------------|---------------------|
D||--2--------10--------8--------8--8----8----|--2--------10--------|
A||--2--------10--------8--------8--8----8----|--2--------10--------|
E||--0---------8--------6--------6--8----6----|--0---------8--------|


  H        E  Q    Q       H         H           H        E  Q    Q
------------------------|---------------------|------------------------|
------------------------|---------------------|------------------------|
------------------------|---------------------|------------------------|
--8--------8--6----6----|--2--------10--------|--8--------8--8----8----|
--8--------8--6----6----|--2--------10--------|--8--------8--8----8----|
--6--------6--4----4----|--0---------8--------|--6--------6--8----6----|


  H         H           H        E  Q    Q       E  E  E  E  E  E  E  E
---------------------|------------------------|--------------------------|
---------------------|------------------------|--------------------------|
---------------------|------------------------|--------------------------|
--2--------10--------|--8--------8--6----6----|--------------------------|
--2--------10--------|--8--------8--6----6----|--------------------------|
--0---------8--------|--6--------6--4----4----|--0--0--0--0--0--0--4--2--|


  E  E  E  E  E  E  E  E     E  E  E  E  E  E  E  E
--------------------------|--------------------------|
--------------------------|--------------------------|
--------------------------|--------------------------|
--------------------------|--------------------------|
--------------------------|--------------------------|
--0--0--0--0--0--0--4--2--|--0--0--0--0--0--0--4--2--|


  E  E  E  E  E  E  E  E     W                   E  E  E  E  E  E  E  E
--------------------------|-------------------|------------------------------|
--------------------------|-------------------|--5-----5--7--7--7--(b9)-7----|
--------------------------|-------------------|-----8------------------------|
--------------------------|--2----------------|------------------------------|
--------------------------|--2----------------|------------------------------|
--0--0--0--0--0--0--4--2--|--0----------------|------------------------------|


   E   E  E  E  E  E  E  W                   E  E  E  E  E  E  E  E
------------------------------------------|--4--4--4--5--5--5--7--7------------|
--10--10--(b9)-(b9)-7--7--5-------------------|--5--4--5--7--7--7--(b9)-(b9)---|
------------------------------------------|------------------------------------|
-------------------------2----------------|------------------------------------|
-------------------------2----------------|------------------------------------|
-------------------------0----------------|------------------------------------|


  E  E  E  E  E  E  E  E      H        H        W
-----(b9)-(b9)-7--7--7--5--5--|----------------------------------------------|
-----(b9)-(b9)-(b9)-(b9)-(b9)-7--7--|----------------------------------------|
--------------------------|--------------------------------------------------|
--------------------------|--10--------8--------6----------------------------|
--------------------------|--10--------8--------6----------------------------|
--------------------------|---8--------6--------4----------------------------|


   H        H           W                 H           H        H
---------------------|-----------------------------|--------------------|
---------------------|-----------------------------|--------------------|
---------------------|-----------------------------|--------------------|
--10--------8--------|--6----------------10--------|--8--------6--------|
--10--------8--------|--6----------------10--------|--8--------6--------|
---8--------6--------|--4-----------------8--------|--6--------4--------|


  W                Q    Q    Q    Q    Q    Q    Q    Q    W                W
--------------------------------------------------------------------------------|
--------------------------------------------------------------------------------|
-------------------8----8----8----8---------------------------------------------|
--8----------------8----8----8----8----8----8----8----8----3----------------6---|
--8----------------6----6----6----6----8----8----8----8----3----------------6---|
--6------------------------------------6----6----6----6----1----------------4---|


  Q    Q    Q    Q       Q    Q    Q    Q       W
----------------------|----------------------|-------------------|
----------------------|----------------------|-------------------|
--8----8----8----8----|----------------------|-------------------|
--8----8----8----8----|--8----8----8----8----|--3----------------|
--6----6----6----6----|--8----8----8----8----|--3----------------|
----------------------|--6----6----6----6----|--1----------------|


  W                   H         H           H        E  Q    Q
-------------------|---------------------|------------------------|
-------------------|---------------------|------------------------|
-------------------|---------------------|------------------------|
--6----------------|--2--------10--------|--8--------8--8----8----|
--6----------------|--2--------10--------|--8--------8--8----8----|
--4----------------|--0---------8--------|--6--------6--8----6----|


  H         H           H        E  Q    Q       W
---------------------|------------------------|-------------------|
---------------------|------------------------|-------------------|
---------------------|------------------------|-------------------|
--2--------10--------|--8--------8--6----6----|--2----------------|
--2--------10--------|--8--------8--6----6----|--2----------------|
--0---------8--------|--6--------6--4----4----|--0----------------|


  E  E  E  E  E  E  E  E      E   E  E  E  E  E  E  W
--------------------------|--------------------------------------------------|
--5-----5--7--7--7--(b9)-7--|--10--10--(b9)-(b9)-7--7--5---------------------|
-----8--------------------|--------------------------------------------------|
--------------------------|-------------------------2------------------------|
--------------------------|-------------------------2------------------------|
--------------------------|-------------------------0------------------------|


  E  E  E  E  E  E  E  E     E  E  E  E  E  E  E  E      H        H
--4--4--4--5--5--5--7--7--|-----(b9)-(b9)-7--7--7--5--5--|------------|
--5--4--5--7--7--7--(b9)-(b9)-|-----(b9)-(b9)-(b9)-(b9)-(b9)-7--7--|--|
--------------------------|--------------------------|----------------|
--------------------------|--------------------------|--10--------8---|
--------------------------|--------------------------|--10--------8---|
--------------------------|--------------------------|---8--------6---|


  W                    H        H           W
-------------------|---------------------|-------------------|
-------------------|---------------------|-------------------|
-------------------|---------------------|-------------------|
--6----------------|--10--------8--------|--6----------------|
--6----------------|--10--------8--------|--6----------------|
--4----------------|---8--------6--------|--4----------------|


   H        H           H        H           W
---------------------|--------------------|-------------------|
---------------------|--------------------|-------------------|
---------------------|--------------------|-------------------|
--10--------8--------|-----------6--------|--8----------------|
--10--------8--------|-----------6--------|--8----------------|
---8--------6--------|-----------4--------|--6----------------|


  Q    Q    Q    Q       Q    Q    Q    Q       W
----------------------|----------------------|-------------------|
----------------------|----------------------|-------------------|
--8----8----8----8----|----------------------|-------------------|
--8----8----8----8----|--8----8----8----8----|--3----------------|
--6----6----6----6----|--8----8----8----8----|--3----------------|
----------------------|--6----6----6----6----|--1----------------|


  W                   Q    Q    Q    Q       Q    Q    Q    Q
-------------------|----------------------|----------------------|
-------------------|----------------------|----------------------|
-------------------|--8----8----8----8----|----------------------|
--6----------------|--8----8----8----8----|--8----8----8----8----|
--6----------------|--6----6----6----6----|--8----8----8----8----|
--4----------------|----------------------|--6----6----6----6----|


  W                   W                   W
-------------------|-------------------|-------------------|
-------------------|-------------------|-------------------|
-------------------|-------------------|-------------------|
--3----------------|--6----------------|--8----------------|
--3----------------|--6----------------|--8----------------|
--1----------------|--4----------------|--6----------------|


  Q    Q    Q    Q       Q    Q    Q    Q       W
----------------------|----------------------|-------------------|
----------------------|----------------------|-------------------|
--8----8----8----8----|----------------------|-------------------|
--8----8----8----8----|--8----8----8----8----|--3----------------|
--6----6----6----6----|--8----8----8----8----|--3----------------|
----------------------|--6----6----6----6----|--1----------------|


  W                   Q    Q    Q    Q       Q    Q    Q    Q
-------------------|----------------------|----------------------|
-------------------|----------------------|----------------------|
-------------------|--8----8----8----8----|----------------------|
--6----------------|--8----8----8----8----|--8----8----8----8----|
--6----------------|--6----6----6----6----|--8----8----8----8----|
--4----------------|----------------------|--6----6----6----6----|


  W                   W
-------------------|-------------------|
-------------------|-------------------|
-------------------|-------------------|
--3----------------|--6----------------|
--3----------------|--6----------------|
--1----------------|--4----------------|


  E  E  E  E  E  E  E  W
-----------------------------------------|
--4--3--4--3-----4--3--------------------|
--------------5--------5~----------------|
-----------------------------------------|
-----------------------------------------|
-----------------------------------------|


                                            PM PM PM PM PM PM PM PM PM PM
  E  E  E  E  E  E  W                 E  E  E  E  E  E  E  E  E  E  E  W
--------------------------------------5-----------------------------------------|
--4--3--4--3-----4--6b-------------------6--3--4--3-----------------4-----------|
--------------5--------------------------------------5--------3--5-----5~-------|
--------------------------------------------------------3--5--------------------|
--------------------------------------------------------------------------------|
--------------------------------------------------------------------------------|


  E  E  S  S S  S S  S S S W
---------------------------------------------|
---------------------------4~----------------|
--------3h-5-3h-5-3h-5-----------------------|
--3--5-----------------3-5-------------------|
---------------------------------------------|
---------------------------------------------|


  W                W                W                H        W
-------------------------------------------------------------------------------|
-------------------------------------------------------------------------------|
--8----------------------------------------------------------------------------|
--8----------------8----------------6----------------3--------8----------------|
--6----------------8----------------6----------------3--------8----------------|
-------------------6----------------4----------------1--------6----------------|


  W                   W                   W
-------------------|-------------------|-------------------|
-------------------|-------------------|-------------------|
--8----------------|-------------------|-------------------|
--8----------------|--8----------------|--6----------------|
--6----------------|--8----------------|--6----------------|
-------------------|--6----------------|--4----------------|


  PM PM PM PM PM PM PM PM PM PM PM PM PM PM PM PM PM PM PM PM PM PM PM PM PM PM
  E  E  E  E  E  E  E  E  E  E  E  E  E  E  E  E  E  E  E  E  E  E  E  E  E  E
--------------------------------------------------------------------------------|
--------------------------------------------------------------------------------|
--------------------------------------------------------------------------------|
--3--3--3--3--3--3--3--3--3--3--3--3--3--8--8--8--8--8--8--8--8--8--8--8--8--8--|
--3--3--3--3--3--3--3--3--3--3--3--3--3--8--8--8--8--8--8--8--8--8--8--8--8--8--|
--1--1--1--1--1--1--1--1--1--1--1--1--1--6--6--6--6--6--6--6--6--6--6--6--6--6--|


  Q    Q    Q    Q       Q    Q    Q    Q       W
----------------------|----------------------|-------------------|
----------------------|----------------------|-------------------|
--8----8----8----8----|----------------------|-------------------|
--8----8----8----8----|--8----8----8----8----|--3----------------|
--6----6----6----6----|--8----8----8----8----|--3----------------|
----------------------|--6----6----6----6----|--1----------------|


  W                   Q    Q    Q    Q       Q    Q    Q    Q
-------------------|----------------------|----------------------|
-------------------|----------------------|----------------------|
-------------------|--8----8----8----8----|----------------------|
--6----------------|--8----8----8----8----|--8----8----8----8----|
--6----------------|--6----6----6----6----|--8----8----8----8----|
--4----------------|----------------------|--6----6----6----6----|


  W                   W                   Q    Q    Q    Q
-------------------|-------------------|----------------------|
-------------------|-------------------|----------------------|
-------------------|-------------------|--8----8----8----8----|
--3----------------|--6----------------|--8----8----8----8----|
--3----------------|--6----------------|--6----6----6----6----|
--1----------------|--4----------------|----------------------|


  Q    Q    Q    Q       W                   W
----------------------|-------------------|-------------------|
----------------------|-------------------|-------------------|
----------------------|-------------------|-------------------|
--8----8----8----8----|--3----------------|--6----------------|
--8----8----8----8----|--3----------------|--6----------------|
--6----6----6----6----|--1----------------|--4----------------|


  Q    Q    Q    Q       Q    Q    Q    Q       W
----------------------|----------------------|-------------------|
----------------------|----------------------|-------------------|
--8----8----8----8----|----------------------|-------------------|
--8----8----8----8----|--8----8----8----8----|--3----------------|
--6----6----6----6----|--8----8----8----8----|--3----------------|
----------------------|--6----6----6----6----|--1----------------|


  H        H           H        H
--------------------|--------------------|
--------------------|--------------------|
--------------------|--------------------|
-----------6--------|-----------6--------|
-----------6--------|-----------6--------|
-----------4--------|-----------4--------|


  H        E  E  E  W
-------------------------------------||
-------------------------------------||
-------------------------------------||
--6----------------------------------||
--6----------------------------------||
--4--------0--0--0--0----------------||


Duration Legend
---------------
W - whole
H - half
Q - quarter
E - 8th
S - 16th
T - 32nd
X - 64th
. - note dotted
|-n-|  - n-tuplets


Tablature Legend
----------------
L - tied note
x - dead note
g - grace note
(n) - ghost note
> - accentuded note
NH - natural harmonic
AH - artificial harmonic
TH - tapped harmonic
SH - semi harmonic
PH - pitch harmonic
h - hammer on
p - pull off
b - bend
br - bendRelease
pb - preBend
pbr - preBendRelease
brb - bendReleaseBend

/ - tremolo bar dip

 - tremolo bar dive
-/n - tremolo bar Release up
/n\ - tremolo bar inverted dip
/n - tremolo bar return
-
 - tremolo bar Release down
S - shift slide
s - legato slide
/ -  slide into from below or out of upwards
\ -  slide into from above or out of downwards
~ - vibrato
W - wide vibrato
tr - trill
TP - tremolo picking
T - tapping
S - slap
P - pop
< - fade in
^ - brush up
v - brush down
Tap to rate this tab
 
# A B C D E F G H I J K L M N O P Q R S T U V W X Y Z