Song name
# A B C D E F G H I J K L M N O P Q R S T U V W X Y Z

Pretty Boy Floyd - I Wanna Be With You tab

-------------------------------------------------------------3----------------|
-----------1-------1-------1-----1------------1---1--------3---3--------------|
---------0-------0-------2------------------0---0--------0--------------------|
-------2-------0-------2-------2----------0-----------------------------------|
-0-2-3-------2-------0--------------------------------------------------------|
-----------------------------3----------2--------------3----------------------|


-------------------------------------------------------------3----------------|
-----------1-------1-------1-----1------------1---1--------3------------------|
---------0-------0-------2------------------0---0--------0--------------------|
-------2-------0-------2-------2----------0-----------------------------------|
-0-2-3-------2-------0-------------------------------------------0----2-------|
-----------------------------3----------2--------------3----------------------|
As I was walking out of class, the other day at school, I saw you

--------------------------------------------------------------3---------------|
-----------1-------1-------1-----1------------1---1--------3----3-------------|
---------0-------0-------2------------------0---0--------0--------0-----------|
-------2-------0-------2-------2----------0-----------------------------------|
-----3-------2-------0--------------------------------------------------------|
-----------------------------3----------2--------------3----------------------|
Don't think I've ever seen you, round here before..you must be new

------------------------------------------------------------------------------|
-----------1-------1-------1-----1------------1---1--------3------------------|
---------0-------0-------2------------------0---0--------0--------------------|
-------2-------0-------2-------2----------0-----------------------------------|
-0-2-3-------2-------0-------------------------------------------0----2-------|
-----------------------------3----------2--------------3----------------------|
What's your name, where're you from? Our conversation's just begun etc.

------------------------------------------------------------------------------|
-----------1-------1-------1-----1------------1---1---------------------------|
---------0-------0-------2------------------0---0-----------------------------|
-------2-------0-------2-------2----------0-----------------------------------|
-----3-------2-------0---------------------------------------0-2-3------------|
-----------------------------3----------2--------------0-1-3------------------|
I know that we just met, but maybe you'd love to let me, go out with you...

------------------------------------------------------------------------------|
------------------------------------------------------------------------------|
--5--5------------------5--5------------------5--5----------------------------|
--5--5---5-5--3-3--5-5--5--5---5-5--3-3--5-5--5--5---5-5--3-3--5-5--3------5--|
--3--3---5-5--3-3--5-5--3--3---5-5--3-3--5-5--3--3---5-5--3-3--5-5--3------5--|
---------3-3--1-1--3-3---------3-3--1-1--3-3---------3-3--1-1--3-3--1------3--|
I wanna be with you,I wanna be with you (x6)and only you (2nd verse + solo)

------------------------------------------------------------------------------|
------------------------------------------------------------------------------|
------------------------------------------------------------------------------|
--7-7-7t--5-5-5t--3-3-3t--5-5-5t--7-7-7t--5-5-5t---------------5--------------|
--7-7-7t--5-5-5t--3-3-3t--5-5-5t--7-7-7t--5-5-5t---------------5--------------|
--5-5-5t--3-3-3t--1-1-1t--3-3-3t--5-5-5t--3-3-3t-1-0-1-0-1-0-1-3--------------|
if I could have any girl at school etc.

------------------------------------------------------------------------------|
------------------------------------------------------------------------------|
------------------------------------------------------------------------------|
--7-7-7t--5-5-5t--3-3-3t--5-5-5t--7-7-7t--5-5---3-----------------------------|
--7-7-7t--5-5-5t--3-3-3t--5-5-5t--7-7-7t--5-5---3-----------------------------|
--5-5-5t--3-3-3t--1-1-1t--3-3-3t--5-5-5t--3-3---1-----------------------------|
If I could do anything, anything I wanted to etc.

------------------------------------------------------------------------------|
------------------------------------------------------------------------------|
------5---------------------------------5-------------------------------------|
------5--------------3------------------5--------------3-t--------------------|
------3--------------3------------------3--------------3-t--------0-2---------|
---------------------1---------------------------------1-t----1-3-------------|
(break in chors)

----------------------------3---1-----------------------------3---1-----------|
------------3--1----------1-------2-----------3--1----------1-------2---------|
----------0------0------2-------------------0------0------2-------------------|
--------2----------2----------------------2----------2------------------------|
------3---------------------------------3-------------------------------------|
----------------------1---------------------------------1---------------------|
(break in notes)

------------------------------------------------------------------------------|
------------------------------------------------------------------------------|
-----7-7----------------------------------------------------------------------|
-----7-7---7-7--5-5--7-7------------------------------------------------------|
-----5-5---7-7--5-5--5-5------------------------------------------------------|
-----------5-5--3-3--5-5------------------------------------------------------|
(end) repeat this
Tap to rate this tab
 
# A B C D E F G H I J K L M N O P Q R S T U V W X Y Z