Song name
# A B C D E F G H I J K L M N O P Q R S T U V W X Y Z

Pretty Girls Make Graves - All Medicated Geniuses tab

artist: Pretty Girls Make Graves
title: All Medicated Geniuses

This is my first tab. i really like this song a lot and i've never been able to find
a taab for it, so i decided to make one.

standard tuning

intro

guitar 1					guitar 2
e---------------------------------		e---------------------------------|
b------------12x12----12-12---12/-		b---------------------------------|
G-12/9-9x9-xx-9x-9-----9--9-------		G-----------9-9--7-7--------------|
D-10/7-7x7-xx10x10----10-10-9--9/-		D-----------7-7--5-5--7-7---------|
A-------------------0------10-10/-		A------7-7------------5-5---------|
E---------------------------------		E------5-5------------------------|

e---------10h12p10p0-----------------		e---------------------------------|
b-8x8-xx-----------------------------		b---------------------------------|
G-7x7-xx------------12-----9---------		G---------------------------------|
D-9x9-xx--------------xx5--------(9)-		D---------------------------------|
A---------------------xx-----0-7-----		A-5-5--------------3-3-3--2--0----|
E------------------------------------		E-3-3---------------------------3-| x2

e---------------------------------------|
b------------12x12-xx-1212-12-12-12--12-|
G-12/9-9x9-xx-9x-9-xx--9-9--------------|
D-10/7-7x7-xx10x10-xx-1010-10-10-10--10-|
A---------------------------------------|
E---------------------------------------|

e---------10h12p10p0-----------------|
b-8x8-xx-----------------------------|
G-7x7-xx------------12-----9---------|
D-9x9-xx--------------xx5------------|
A---------------------xx-----0-7--/--|
E------------------------------------|

verse

e---------------------------------		e---------------------------------|
b------------12x12----12-12---10/-		b---------------------------------|
G-12/9-9x9-xx-9x-9-----9--9-------		G-----------9-9--7-7--------------|
D-10/7-7x7-xx10x10----10-10-9--9/-		D-----------7-7--5-5--7-7---------|
A-------------------0------10-10/-		A------7-7------------5-5---------|
E---------------------------------		E------5-5------------------------|

e---------10h12p10p0-----------------		e---------------------------------|
b-8x8-xx-----------------------------		b---------------------------------|
G-7x7-xx------------12-----9-xx8x8---		G---------------------------------|
D-9x9-xx--------------xx5----xx7x7---		D---------------------------------|
A---------------------xx-----xx9x9---		A-5-5--------------3-3-3--2--0----|
E------------------------------------		E-3-3---------------------------3-| x2

bridge 1
						e---------------------------------|
						b---------------------------------|
						G-7-7-7-7-7-7-7-------------------|
						D---------------------------------|
						A---------------------------------|
						E---------------------------------|

e-10h12p10----10------------------		e---------------------------------|
b---------10-----12---------------		b---------------------------------|
G---------------------------------		G-7-7-7-5-5-5-5h7p5p0-------------|
D---------------------------------		D---------------------------------|
A---------------------------------		A---------------------------------|
E---------------------------------		E---------------------------------|

e-10h12p10----10--12--------------		e---------------------------------|
b---------10----------10----------		b---------------------------------|
G---------------------------------		G---------------------------------|
D---------------------------------		D-7-7-7-5-5-5-5h7p5p0-------------|
A---------------------------------		A---------------------------------|
E---------------------------------		E---------------------------------|

e-10h12p10----10------------------		e---------------------------------|
b---------10-----12---------------		b---------------------------------|
G---------------------------------		G---------------------------------|
D---------------------------------		D---------------------------------|
A---------------------------------		A-7-7-7-5-5-5-5h7p5p0-------------|
E---------------------------------		E---------------------------------|

e-10h12p10------------------------		e---------------------------------|
b---------10----------------------		b---------------------------------|
G-------------12/-14--------------		G---------------------------------|
D--------------------12/-14-------		D---------------------------------|
A---------------------------------		A---------------------------------|
E---------------------------------		E-7-7-7-3---3---3/----------------| x2
						second time slide to 5 and play:

						e---------------------------------|
						b---------------------------------|
						G---------------------------------|
						D---------------------------------|
						A---------------------------------|
						E-5--0-3-5--0-3-5--0-3-5----------|
						[second guitar plays the same riff 
                                                the first time and plays this the second time]
e------20--------20---------------		e---------------------------------|
b-17b-----17-17b------------------		b---------------------------------|
G---------------------------------		G-7-7-7-5-5-5-5h7p5p0-------------|
D---------------------------------		D---------------------------------|
A---------------------------------		A---------------------------------|
E---------------------------------		E---------------------------------|

e---------20---------20-----------		e---------------------------------|
b-17-17b-----17-17b---------------		b---------------------------------|
G---------------------------------		G---------------------------------|
D---------------------------------		D-7-7-7-5-5-5-5h7p5p0-------------|
A---------------------------------		A---------------------------------|
E---------------------------------		E---------------------------------|

e------19---------19--------------		e---------------------------------|
b-15b-----15-15b------------------		b---------------------------------|
G---------------------------------		G--------9---------9--------------|
D---------------------------------		D-5/--7-----5/--7-----------------|
A---------------------------------		A---------------------------------|
E---------------------------------		E---------------------------------|

e---------19--------19------------		e---------------------------------|
b-15-15b----15-15b----------------		b---------------------------------|
G---------------------------------		G--------12---------------16------|
D---------------------------------		D-9/--10------9--10/--12-----12---|
A---------------------------------		A---------------------------------|
E---------------------------------		E---------------------------------| x2


						e---------------------------------|
						b---------------------------------|
						G---------------------------------|
						D-12-12-12-12-12------------------|
						A---------------------------------|
						E---------------------------------|
Play the verse riff

bridge 2
this part is weird and i'm not sure which guitar plays what part
so just kinda go with it.

e---------------------------------|
b-12--12--------------------------|
G--9---9--------------------------|
D-10--10--------------------------|
A---------------------------------|
E---------------------------------|
[bass riff]
e---------------------------------        e------------------------------------|
b-12--12-12-12--12-12-12----------        b-----12~----------------------------|
G--9---9--9--9---9--9--9----------        G----9~------------------------------|
D-10--10-10-10--10-10-10----------        D---9~-------------------------------|
A---------------------------------        A-10~--------------------------------|
E---------------------------------x2        E----------------------------------|

e---------------------------------		e---------------------------------|
b--8---8--8--8---8--8--8----------		b----8~---------------------------|
G--7---7--7--7---7--7--7----------		G---7~----------------------------|
D--9---9--9--9---9--9--9----------		D--9~-----------------------------|
A---------------------------------		A-7~------------------------------|
E---------------------------------		E---------------------------------|

e---------------------------------|
b-----9--7--9---------------------|
G-/8------------------------------|
D---------------------------------|
A---------------------------------|
E---------------------------------|

e---------------------------------        e------------------------------------|
b-12--12-12-12--12-12-12----------        b------------------------------------|
G--9---9--9--9---9--9--9----------        G-------0----------0--2--0-----------|
D-10--10-10-10--10-10-10----------        D----2----------2--------------------|
A---------------------------------        A-0----------0-----------------------|
E---------------------------------x2        E----------------------------------|

e---------------------------------		e---------------------------------|
b--8---8--8--8---8--8--8----------		b---------------------------------|
G--7---7--7--7---7--7--7----------		G-------0-------------------------|
D--9---9--9--9---9--9--9----------		D----2----------------------------|
A---------------------------------		A-0-------------------------------|
E---------------------------------		E---------------------------------|

e---------------------------------|
b-----9--7--9---------------------|
G-/8------------------------------|
D---------------------------------|
A---------------------------------|
E---------------------------------|

e-15p-12p----------15p-12p--------		e---------------------------------|
b---------10p-12-----------12p----		b-12--12-12-12--12-12-12----------|
G------------------------------12-		G--9---9--9--9---9--9--9----------|
D---------------------------------		D-10--10-10-10--10-10-10----------|
A---------------------------------		A---------------------------------|
E---------------------------------		E---------------------------------|x2

e-15p-12p-------------------------		e---------------------------------|
b---------10p-12------------------		b--8---8--8--8---8--8--8----------|
G---------------------------------		G--7---7--7--7---7--7--7----------|
D---------------------------------		D--9---9--9--9---9--9--9----------|
A---------------------------------		A---------------------------------|
E---------------------------------		E---------------------------------|

e---------------------------------|
b-----9--7--9---------------------|
G-/8------------------------------|
D---------------------------------|
A---------------------------------|
E---------------------------------|

ending

i think both guitars just play these chords

e---------------------------------|
b-12--12--10----------------------|
G--9------------------------------|
D-10---9---9----------------------|
A-----10--10----------------------|
E---------------------------------|
listen to song for rythm

then play intro twice for the end. there is a dead note pick-scratch part but i 
think you can handle it.
enjoy.
Tap to rate this tab
 
# A B C D E F G H I J K L M N O P Q R S T U V W X Y Z