Guitaretab - guitar tabs
Song name
# A B C D E F G H I J K L M N O P Q R S T U V W X Y Z

Pretty Girls Make Graves - The Getaway tab

Pretty Girls Make Graves
The Getaway
sfc

INTRO

e--------------------10---10---10---10---
B---7---10------7------------------------
G-7---7-------7---7-----7----7----7------
D----------------------------------------
A----------------------------------------
E----------------------------------------  x5 then keyboard kicks in
[ Tab from: http://www.guitaretab.com/p/pretty-girls-make-graves/213319.html ]
keyboard
e----------------------------------------
B----------------------------------------
G----------------------------------------
D-12/14/12--12/14/12--12/14/12--12/14/12-
A----------------------------------------
E----------------------------------------


at 0:46
e-------5-----5-----5-----5------------5--------------3-------
B---------7-----7-----7-----7------5-----5---5----3-----3---3-
G-----------7-----7-----7-----7--6---6-----6----4---4-----4---
D-------------------------------------------------------------
A-------------------------------------------------------------
E-------------------------------------------------------------


Related for The Getaway tab
The Getaway chords by Pretty Girls Make Graves