Pretty Girls Make Graves - This Is Our Emergency tab

This song is played in DADGAD... all of the other tabs I had found online had
 this played in standard tuning, and despite being close in fretting, none
 were correct.  This is accurate for notes, and I believe the technique J used
 to play his part in the intro.  After this is pretty easy to figure out the
 rest of the parts on the low A and middle D strings, it mirrors the intro's
 pattern down an octave.

d--7-7-7-7-7-7-0-0-7-7-7-7-7-7-0-0---------------2--|
a-0-0-0-0-0-0-0-0-0-0-0-0-0-0-0-0--4-4-4-4-4-4-4----|
g---------------------------------2-2-2-2-2-2-2-2---|
d---------------------------------------------------|
a---------------------------------------------------|
d---------------------------------------------------|

d----------------------------------|
a----------------------------------|
g--2-2-2-2-2-2-2-2-2-2-2-2-2-2-2-2-|
d-4-4-4-4-4-4-3-3-0-0-0-0-0-0-0-0--|
a----------------------------------|
d----------------------------------|
Tap to rate this tab
 
# A B C D E F G H I J K L M N O P Q R S T U V W X Y Z