Song name
# A B C D E F G H I J K L M N O P Q R S T U V W X Y Z

Pretty Girls Make Graves - A Certain Cemetery tab

  Pretty Girls Make Graves
   "A Certain Cemetery"
my first tab i hope  it's good have fun it's a good song


E--1-0----1-0-3-----1-0-3---5---1-0-3--5-|
B---------------2---------2----------2---|
G----------------------------------------|
D----------------------------------------|
A----------------------------------------|
E----------------------------------------|



E--1-0----1-0-3-----1-0-3---5---1-0-3--5-|
B---------------2---------2----------2---|
G----------------------------------------|
D----------------------------------------|
A----------------------------------------|
E----------------------------------------|


E--1-0----1-0-3-----1-0-3---5---1-0-3--5-|
B---------------2---------2----------2---|
G----------------------------------------|
D----------------------------------------|
A----------------------------------------|
E----------------------------------------|


E--1-0----1-0-3-----1-0-3---5---1-0-3--5-|
B---------------2---------2----------2---|
G----------------------------------------|
D----------------------------------------|
A----------------------------------------|
E----------------------------------------|


if not email me placebo2@walla.co.il
Tap to rate this tab
# A B C D E F G H I J K L M N O P Q R S T U V W X Y Z