Song name
# A B C D E F G H I J K L M N O P Q R S T U V W X Y Z

Pretty Girls Make Graves - Bring It On Golden Pond tab

----------------------------------------------------------------------------
		Bring It On Golden Pond - Pretty Girls Make Graves
----------------------------------------------------------------------------
Tabbed by: A. Pallavicini
Email: istillhateyou@hotmail.com

Tuning: standard

Intro (bass)
G|--------------------------------------------------------------------------|
D|--------------------------------------------------------------------------|
A|--5-5-5-5-4-4-4-4-3-3-3-3-------------------------------------------------|
E|--------------------------3-3-3-3-3-3-3-3---------------------------------|

Main Riff
Guitar 1                                                end with  (3rd bar)
e|--------------------------------------------------------------------------|
B|--------------------------------------------------------------------------|
G|--------------------------------------------------------------------------|
D|---------3-----3p2----------3-----3p2---------3-----3p2---3p2---3p2---3p2-|
A|-5-5-5-5---5-5------4-4-4-4---4-4-----3-3-3-3---3-3-----3-----3-----3-----|
E|--------------------------------------------------------------------------|

Guitar 2
e|--------------------------------------------------------------------------|
B|-----------------------------------------------------*--------------------|
G|-----------------------------------------------------7-8------------------|
D|----3---3---3---3---3---3---3-3p2----3---3---3---3------------------------|
A|--5---5---5---5---4---4---4--------3---3---3---3--------------------------|
E|--------------------------------------------------------------------------|
During the beginning only guitar 1 plays this riff, guitar 2 seems to mess
around with feedback and volume, can't get it, sorry.

Break
e|--------------------------------------------------------------------------|
B|--------------------------------------------------------------------------|
G|--------------------------------------------------------------------------|
D|--2h3p0-------------------------------------------------------------------|
A|--------------------------------------------------------------------------|
E|--------------------------------------------------------------------------|
After this the second guitar joins

Breakdown
Guitar 1
e|--------------------------------------------------------------------------|
B|--------------------------------------------------------------------------|
G|--------------------------------------------------------------------------|
D|---6----------------------------------------------------------------------|
A|---4---4------------------------------------------------------------------|
E|-------4------------------------------------------------------------------|
listen for amount of strums. oh and the change in chord is very mild, barely
even perceptible at all, it comes right after the 2nd guitar joins.

Guitar 2
e|-----------11----------11-------------------------------------------------|
B|--11p9-11------11p9-11-----11p9-11----------------------------------------|
G|--------------------------------------------------------------------------|
D|--------------------------------------------------------------------------|
A|--------------------------------------------------------------------------|
E|--------------------------------------------------------------------------|

Piano
e|---------------------------------------------------------------------------|
B|--3------------------------------------------------------------------------|
G|------------5--------------------------------------------------------------|
D|----8-7-5------8-7-5-------------------------------------------------------|
A|---------------------------------------------------------------------------|
E|---------------------------------------------------------------------------|
I figured it out just for fun, sounds quite right

Outro
Guitar 1                                                     3rd bar
e|----------------------------------------------------------|---------------|
B|----------------------------------------------------------|---------------|
G|----------------------------------------------------------|---------------|
D|---------3-----3p2----------3-----3p2---------3-----(3p2)-|--3p2---3p2----|
A|-5-5-5-5---5-5------4-4-4-4---4-4-----3-3-3-3---3-3-------|3-----3--------|
E|----------------------------------------------------------|---------------|

Guitar 2                                                          3rd bar
e|---------------------------------------------------------------|----------|
B|--------------------------------------------------------*------|--*-------|
G|-------------------------------------------------------(7)-----|--7-8-----|
D|----3---3---3---3---3---3---3-3p2----3---3---3---3-------------|----------|
A|--5---5---5---5---4---4---4--------3---3---3---3---------------|----------|
E|---------------------------------------------------------------|----------|
The two outro guitars play the main riff, but a little differently as now it
takes three bars to play the riff as they end the first and second bars very
abruptly (seems as if it was cut during recording) and only do it properly
on the third bar. If I'm explaining it badly just listen to the end and
isolate each guitar, you'll see.

| /  slide up
| \  slide down
| h  hammer-on
| p  pull-off
| ~  vibrato
| +  harmonic
| x  Mute note
| * Tremelo
============================================================================
Tap to rate this tab
 
# A B C D E F G H I J K L M N O P Q R S T U V W X Y Z