Song name
# A B C D E F G H I J K L M N O P Q R S T U V W X Y Z

Pretty Girls Make Graves - This Is Our Emergency tab

-----------------------------------------------------------------------------
			     SONG NAME - Band Name
-----------------------------------------------------------------------------
Tabbed by: A. Pallavicini
Email: istillhateyou@hotmail.com

Tuning: Standard

It might be in the wrong octave but I'm very sure these are the right notes

e|--7-7-7-7-7-7-6666---------------------------------------------------------|
B|-0-0-0-0-0-0---------------------------------------------------------------|
G|---------------------4-4-4-4-4-4-6666---1-1-1-1-1-1--0---------------------|
D|--------------------6-6-6-6-6-6--------2-2-2-2-2-2-------------------------|
A|---------------------------------------------------------------------------|
E|---------------------------------------------------------------------------|

| /  slide up
| \  slide down
| h  hammer-on
| p  pull-off
| ~  vibrato
| +  harmonic
| x  Mute note
===============================================================================
Tap to rate this tab
# A B C D E F G H I J K L M N O P Q R S T U V W X Y Z