Guitaretab - guitar tabs
Song name
# A B C D E F G H I J K L M N O P Q R S T U V W X Y Z

Pretty Girls Make Graves - If You Hate Your Friends You Are Not Alone tab

-------------------------------------------------------------------------------
	If You Hate Your Friends YOu're Not Alone - Pretty Girls Make Graves
-------------------------------------------------------------------------------
Tabbed by: A. Pallavicini
Email: istillhateyou@hotmail.com

Tuning: standard

Intro Guitar 1
e|---------------------------5h7p5p0-----------------------------------------|
B|--5p3-5p3-5p3-5p3-5p3-5p3--------------------------------------------------|
G|---------------------------------------------------------------------------|
D|---------------------------------------------------------------------------|
A|---------------------------------------------------------------------------|
E|---------------------------------------------------------------------------|

Intro Guitar 1 Part Two
e|--7p0--5p0--3p0--2p0-------------------------------------------------------|
B|----------------------3/5p0--3/5p0-----------------------------------------|
G|---------------------------------------------------------------------------|
D|---------------------------------------------------------------------------|
A|---------------------------------------------------------------------------|
E|---------------------------------------------------------------------------|

Intro Guitar 2
mostly noodles around with a pentatonic scale by the 12th fret (root note E),
but ends it with:
e|---------------------------------------------------------------------------|
B|------20-19-17-15-17-12----------------------------------------------------|
G|--17-----------------------------------------------------------------------|
D|---------------------------------------------------------------------------|
A|---------------------------------------------------------------------------|
E|---------------------------------------------------------------------------|

Verse Guitar 1
e|---------------------------------------------------------------------------|
B|---------------------------------------------------------------------------|
G|----------------2p0--0h4--4p0---2h4p0---------------------------------------|
D|---------------------------------------2p0---------------------------------|
A|------2p0--0h3-------------------------------------------------------------|
E|--0h3----------------------------------------------------------------------|
[ Tab from: http://www.guitaretab.com/p/pretty-girls-make-graves/91444.html ]
Verse Guitar 2
e|---------------------------------------------------------------------------|
B|---------------------------------------------------------------------------|
G|--b-------b--------b-------------------------------------------------------|
D|--14---14-12----12-14----14--b---------------------------------------------|
A|-----------------------------12---/----------------------------------------|
E|---------------------------------------------------------------------------|
Listen to the song for the timing

Chorus Guitar 2 (can't make out Guitar 1, it's way too muddy)
e|----------5h7p0---------5h7p0----------------------------------------5h7p0-|
B|--3/5-5p0-------3/5-5p0--------3/5-5p0--0-0--3/5-5p0--0-0---3/5-5p0--------|
G|---------------------------------------------------------------------------|
D|---------------------------------------------------------------------------|
A|---------------------------------------------------------------------------|
E|---------------------------------------------------------------------------|

e|----------5h7p0----12-------14---------------------------------------------|
B|--3/5-5p0-------------10-----------3h5p3h5---------------------------------|
G|-------------------------12----12------------------------------------------|
D|---------------------------------------------------------------------------|
A|---------------------------------------------------------------------------|
E|---------------------------------------------------------------------------|

Bridge Guitar 2
e|---------------------------------------------------------------------------|
B|---------------------------------------------------------------------------|
G|-/9(abrupt stop)-9(let ring)--9--------------------------------------------|
D|-/5--------------5------------5-9(let ring)--------------------------------|
A|--------------------------------5------------------------------------------|
E|---------------------------------------------------------------------------|

e|---------------------------------------------------------------------------|
B|---------------------------------------------------------------------------|
G|--99--999-999--99999-------------------------------------------------------|
D|--55--555-555--55555--99--999-999--99999-----------------------------------|
A|----------------------55--555-555--55555-----------------------------------|
E|---------------------------------------------------------------------------|
Alternate between up and down strokes, like when playing ska. Guitar 1 plays
what seems to be a more technical variation of this in what may possibly be
another octave, but I'm too lazy to try get it, sorry.

I can't get the outro, it's a bit too muddy, but I think the bass plays an A
and then a G on the E string, just in case you care.

| /  slide up
| \  slide down
| h  hammer-on
| p  pull-off
| ~  vibrato
| +  harmonic
| x  Mute note
===============================================================================
Related for If You Hate Your Friends You Are Not Alone tab
×
Best way to learn
"If You Hate Your Friends You Are Not Alone"