Song name
# A B C D E F G H I J K L M N O P Q R S T U V W X Y Z

Pretty Girls Make Graves - Modern Day Emma Goldman tab

Help us improve GuitareTab! Take a short survey!
-------------------------------------------------------------------------------
		 Modern Day Emma Goldman - Pretty Girls Make Graves
-------------------------------------------------------------------------------
Tabbed by:
Email:(istillhateyou@hotmail.com)

Tuning: standard

Intro/chorus/outro
Guitars 1&2
e|---------------------------------------------------------------------------|
B|---------------------------------------------------------------------------|
G|--666666-6--777777-7----------------9999-----------------------------------|
D|--666666-6--777777-7--777777-7-7777-9999-----------------------------------|
A|--444444-4--555555-5--777777-7-7777-7777-----------------------------------|
E|----------------------555555-5-5555----------------------------------------|
*During the 3rd bar Guitar 2 noodles around with octaves of these chords.

(Ring into the verse with an A barre chord.)

...and the bass does something like this:
G|-----------------------|
D|-----------------------|
A|----4-------4-------4--|
D|--5---55-55---55-55----| etc etc

"Pre-chorus"
Guitars 1&2
e|---------------------------------------------------------------------------|
B|---------------------------------------------------------------------------|
G|---------------------------------------------------------------------------|
D|--11b-7p0-5p0-0-4p0-0-4p0-4h5p0--------------------------------------------|
A|---------------------------------------------------------------------------|
D|---------------------------------------------------------------------------|
(during verse one they end this riff off twice by ringing out on an A barre chord)

Verse 2
Guitar 1
(1st bar)
e|--b------------------------------------------------------------------------|
B|--14----15p14-------15p14-------15p14-------15p14-------15p14--------------|
G|--------------14s12-------14s12-------14s11-------14s11--------------------|
D|--------------------------------------------------------------7-7-7-7------|
A|--------------------------------------------------------------7-7-7-7------|
D|--------------------------------------------------------------5-5-5-5------|

(2nd, 3rd & 4th bar)
e|---------------------------------------------------------------------------|
B|--15p14-------15p14-------15p14-------15p14-------15p14-------15p14--------|
G|--------14s12-------14s11-------14s11-------14s10-------14s10-------7-7-7-7|
D|--------------------------------------------------------------------7-7-7-7|
A|--------------------------------------------------------------------7-7-7-7|
D|--------------------------------------------------------------------5-5-5-5|

Guitar 2
(1st bar)
e|---------------------------------------------------------------------------|
B|--15p14-------------15/14-------------15p14-------------15p14--------------|
G|--------14/12-12/14-------14/12-12/14-------14/11-11/14-------14/11-11/14--|
D|---------------------------------------------------------------------------|
A|---------------------------------------------------------------------------|
D|---------------------------------------------------------------------------|

e|---------------------------------------------------------------------------|
B|--15p14--------------------------------------------------------------------|
G|---------------------------------------------------------------------------|
D|--------7-7-7-7------------------------------------------------------------|
A|--------7-7-7-7------------------------------------------------------------|
D|--------5-5-5-5------------------------------------------------------------|

(2nd, 3rd & 4th bar)
e|---------------------------------------------------------------------------|
B|--15p14-------------15p14-------------15p15-------------15p14--------------|
G|--------14/12-12/14-------14/11-11/14-------14/11-11/14-------14/10-10/14--|
D|---------------------------------------------------------------------------|
A|---------------------------------------------------------------------------|
D|---------------------------------------------------------------------------|

e|---------------------------------------------------------------------------|
B|--15p14-------------15p14--------------------------------------------------|
G|--------14/10-10/14--------------------------------------------------------|
D|--------------------------7-7-7-7------------------------------------------|
A|--------------------------7-7-7-7------------------------------------------|
D|--------------------------5-5-5-5------------------------------------------|

I'm sure you can figure out the structure yourself.

| /  slide up
| \  slide down
| h  hammer-on
| p  pull-off
| ~  vibrato
| +  harmonic
| x  Mute note
===============================================================================
Related for Modern Day Emma Goldman tab