Song name
# A B C D E F G H I J K L M N O P Q R S T U V W X Y Z

Prettygood - Throw Up Your Hands tab

-----------------------------------------------------------------------------
			     THROW UP YOUR HANDS - prettygood
-----------------------------------------------------------------------------
Tabbed by: JTrivs

Tuning: Standard

MAIN RIFF and INTRO
e|---------------------------------------------------------------------|
B|---------------------------------------------------------------------|
G|---------------------------------------------------------------------|
D|---------------------------------------------------------------------|
A|--------4-3-2-0-------------4-3-2-0----------------------------------|
E|-2-2-2----------------2-2-2------------------------------------------| x2

VERSE
alternate between A, B, and D power chords
        A           D
e|--------------------------------|
B|--------------------------------|
G|------2------4------7-----------|
D|------2------4------7-----------|
A|------0------2------5-----------|
E|--------------------------------|

Grab a big brown bottle of what not, and pretend you believe
And with her hair across her face, she's so hard, to read

And so on..

CHORUS

still just using A, B, and D power chords here
        A       B       D
e|-------------------------------|
B|-------------------------------|
G|------2-------4-------7--------|
D|------2-------4-------7--------|
A|------0-------2-------5--------|
E|-------------------------------|

Sang along til the voices gave out
Taste this dyin' breath, delicious
Take your case, put it against my mouth
Throw up your hands, come walking out slowly


(NOTE: sorry if the lyrics are a tad off..there are no sites with the lyrics i can find)

**TO UG - I cannot find the band's website but they are on itunes under the name 
if you would please check it out** thank you
Tap to rate this tab
# A B C D E F G H I J K L M N O P Q R S T U V W X Y Z