Song name
# A B C D E F G H I J K L M N O P Q R S T U V W X Y Z

Pride And Glory - Horse Called War tab

'Intro'

Full of drums and some inprovising guitarists.


'Riff'    ( / = slide up    = slide down)

    1   2   3   4   5   6   7   8     1   2   3   4   5   6   7   8   
E-|---------------------------------|---------------------------------|
B-|---------------------------------|---------------------------------|
G-|---------------------------------|---------------------------------|
D-|-5-----------5-------------------|-5-----------5-------------2-----|
A-|-3-----------3----------/75/75-|-5-----------3-------------2-------|
E-|---5-4-3-0-3---5-4-3-0-3/53/53-|---5-4-3-0-3---5-4-3-0-3---0-------|




'Verse'   ( ~ = let ring

    1   2   3   4   5   6   7   8     1   2   3   4   5   6   7   8   
E-|---------------------------------|---------------------------------|
B-|---------------------------------|---------------------------------|
G-|---------------------------------|---------------------------------|
D-|-7---5---------------------------|---5-------5-----6~----5~----4~--|
A-|-------7-5-3-5-6~----5-3-5-3---3-|/7--5-3-7--5-3-7~----6~----5~----|
E-|-----------------------------5---|---------------------------------|




'Pre Chorus'  ( x = scratch)

    1   2   3   4   1   2   3   4     1   2   3   4   1   2   3   4   
E-|---------------|-----------------|---------------|-----------------|
B-|-8-8---8---8---|8x---x---x---x---|-8-8---8---8---|8x---x---x---x---|
G-|-7-7---7---7---|7x---x---x---x---|-7-7---7---7---|7x---x---x---x---|
D-|-6-6---6---6---|6x---x---x---x---|-6-6---6---6---|6x---x---x---x---|
A-|-7-7---7---7---|7x---x---x---x---|-7-7---7---7---|7x---x---x---x---|
E-|---------------|-----------------|---------------|-----------------|

    1   2   3   4   1   2   3   4     1   2   3   4   1   2   3   4   
E-|---------------|-----------------|---------------|-----------------|
B-|-8-8---8---8---|8x---x---x---x---|-8-8---8---8---|-----------------|
G-|-7-7---7---7---|7x---x---x---x---|-7-7---7---7---|-----------------|
D-|-6-6---6---6---|6x---x---x---x---|-6-6---6---6---|-----------------|
A-|-7-7---7---7---|7x---x---x---x---|-7-7---7---7---|-7-------5-------|
E-|---------------|-----------------|---------------|-----------------|

    5   6   7   8    
E-|---------------|
B-|---------------|
G-|---------------|
D-|---------------|
A-|-3-------2-----|
E-|---------------|


'Chorus'

    1   2   3   4   5   6   7   8     1   2   3   4   5   6   7   8  
E-|-0---0-0---0-0---0---0-0---0-0---|-1---1-1---1-1-------------------| 
B-|-1---1-1---1-1---1---1-1---1-1---|-1---1-1---1-1-------------------|
G-|-2---2-2---2-2---2---2-2---2-2---|-2---2-2---2-2-------------------*
D-|-2---2-2---2-2---2---2-2---2-2---|-3---3-3---3-3---2-2-x-2---------* - repeat once
A-|-0---0-0---0-0---0---0-0---0-0---|-3---3-3---3-3---2-2-x-2---------|
E-|-0---0-0---0-0---3---3-3---3-3---|-1---1-1---1-1---0-0-x-0---3-----|


'Fill between Chorus and Solo'

    1   2   3   4   5   6   7   8     1   2   3   4   5   6   7   8   
E-|---------------------------------|---------------------------------|
B-|---------------------------------|---------------------------------|
G-|---------------------------------|---------------------------------|
D-|---------------------------------|---------------------------------|
A-|-3-x-x-3-x-x-3-x-x-3-x-x-3---3---|-5-x-x-5-x-x-5-x-x-5-x-x-5---5---|
E-|-1-x-x-1-x-x-1-x-x-1-x-x-1---1---|-3-x-x-3-x-x-3-x-x-3-x-x-3---3---|


'Verse after solo'

    1   2   3   4   5   6   7   8     1   2   3   4   5   6   7   8
E-|---------------------------------|---------------------------------|
B-|---------------------------------|---------------------------------|
G-|---------------------------------|---------------------------------|
D-|-9---7---------------------------|---7-------7-----8~----7~----6~--|
A-|-------9-7-5-7-8~----7-5-7-5---5-|/9--7-5-9--7-5-9~----8~----7~----|
E-|-----------------------------7---|---------------------------------|

    1   2   3   4
E-|---------------|
B-|---------------|
G-|---------------|
D-|---5-----4---2-|
A-|---6-----5---4-|
E-|---------------|



'Ending riff'

    1   2   3   4   5   6   7   8     1   2   3   4   5   6   7   8 
E-|---------------------------------|---------------------------------|
B-|---------------------------------|---------------------------------|
G-|---------------------------------|---------------------------------*
D-|-5-------5-------5---------7-----|-5-------5-------5---------2-----* - repeat once
A-|-3-------3-------3---------5-----|-3-------3-------3---------2-----|
E-|---5-4-3---5-4-3---5-4-3---------|---5-4-3---5-4-3---5-4-3---0-----|



The Song:

[Intro]
[Riff x 2]
[Verse]
[Riff]
[Verse]
[Riff]
[Pre Chorus]
[Chorus]
[Riff x 2]
[Verse]
[Riff]
[Verse]
[Riff]
[Pre Chorus]
[Chorus]
[Fill]
 (SOLO)
[Verse after solo]
[Riff]
[Pre Chorus]
[Chorus x 2]
[Riff x 2]
[Ending riff]
Tap to rate this tab
# A B C D E F G H I J K L M N O P Q R S T U V W X Y Z