Guitaretab - guitar tabs
Song name
# A B C D E F G H I J K L M N O P Q R S T U V W X Y Z

Pride And Glory - Losing Your Mind tab

Losing your mind
pride & glory
tabbed by Empo

*Low E-string is tuned to low D

Legend:
/=slide up
\=slide down
b=bend
h=hammer on
~=vibrato
p=pull off
x=rake
=tremolo picking


|---------------10----10-----------------|--------------15----16----|
|---------------13bf-----13p10-----------|--------------18bf--19bf--|
|------------------------------12b--10---|--------------------------|
|--10/12-12-12---------------------------|--10/12-12-12-------------|
|--10/12-12-12---------------------------|--10/12-12-12-------------|
|--10/12-12-12---------------------------|--10/12-12-12-------------|


|--------------5----5----5----5----|-------10----------------10--------|
|--------------8bf--8bf--8bf--8bf--|:--13bf----13p10----13bf----13p10-:|
|----------------------------------|-----------------------------------|
|--10/12-12-12---------------------|-----------------------------------|
|--10/12-12-12---------------------|:---------------------------------:|
|--10/12-12-12---------------------|-----------------------------------|



|---------------|-----------------|
|---------------|-----------------|
|--2bf~---------|--2bf----2p0--2--|
|---------------|-----------------|
|---------------|-----------------|
|---------------|-----------------|
[ Tab from: http://www.guitaretab.com/p/pride-and-glory/15062.html ]
|----------------------------------------|--------------------------------|
|:--------------------------------------:|--------------------------------|
|----------------------------------------|--7-9-11-12-14-12-11-9--|
|--9h12p9p8h9h12p9p8h9h12p9p8h9h12p9p8---|--------------------------------|
|:--------------------------------------:|--------------------------------|
|----------------------------------------|--------------------------------|


|---------------------------|
|---------------------------|
|---------------------------|
|--3-3-3-3-3--5-5-5-5-5--3--|
|--3-3-3-3-3--5-5-5-5-5--3--|
|--3-3-3-3-3--5-5-5-5-5--3--|

|---5h10p5---5h10p5---5h10p5-----|--10-------|
|:---------9--------9--------9--:|-----------|
|--------------------------------|-----------|
|--------------------------------|-----------|
|:------------------------------:|-----------|
|--------------------------------|-----------|


|---------------------------|
|---------------------------|
|---------------------------|
|--3-3-3-3-3--5-5-5-5-5--3--|
|--3-3-3-3-3--5-5-5-5-5--3--|
|--3-3-3-3-3--5-5-5-5-5--3--|


|----------------------------------------------------------------|
|:--------------------------:-------------------------10-x-x-10--|
|-----------------------------------------------------10-x-x-10--|
|--------------10-10-12-12----------------10-10-12-12-10-x-x-10--|
|:--10-10-12-12-------------:-10-10-12-12------------------------|
|----------------------------------------------------------------|


|---------------------------|
|---------------------------|
|---------------------------|
|--3-3-3-3-3--5-5-5-5-5--3--|
|--3-3-3-3-3--5-5-5-5-5--3--|
|--3-3-3-3-3--5-5-5-5-5--3--|


|----------------------------------|
|----------7---8/7/10-12/10/7------|
|--7/6/9/7---9----------------9/7--|
|----------------------------------|
|----------------------------------|
|----------------------------------|
Related for Losing Your Mind tab