Song name
# A B C D E F G H I J K L M N O P Q R S T U V W X Y Z

Pride And Glory - Torn And Tattered tab

I took this from another website
Credits were kept
-----------------------------------------------
Author/Artist: Pride & Glory
Title: Torn & Tattered
Album: Pride & Glory
Transcribed by: Rik Knight
Email: rik.knight@talk21.com

From: www.BlackLabelSociety.net

I've not included the number of strums on chords because you can figure that out for yourselves!

The fill at the end of the main riff varies throughout the song.

The end chorus/outro cycles C, D and Em instead of going to Bb and then finishes on Em.

-0---0-3---3--3-3---------|-0h2-2-0h2-2-3p2-2-3p2-2-2-0---0--------------------|
-1---1-3---3--3-3---------|-3---3-3---3-3---3-3---3-3-0h1-1-1/31---------------|
-0---0-0---0--0-0---------|-2---2-2---2-2---2-2---2-2-2---2-2/42-0-2-0---------|
-0h2-0-0---0--0-0--------0|-0---0-0---0-0---0-0---0-0-2---2-------------2-0----|
-3---3-2------2-2----0h2--|---------------------------0---0--------------------|
-------3-3----3-3--3------|----------------------------------------------------|
 Play the first section 3 times then the D, Am section.

-3|-0-0-|-3-|-0-0-|-3-|-0-0-|---0-|-3-|-0-------------------------------------|
-3|-1-1-|-3-|-1-1-|-3-|-1-1-|-3-1-|-3-|-1-------------------------------------|
-0|-0-2-|-0-|-0-2-|-0-|-0-2-|-3-0-|-0-|-2-------------------------------------|
-0|-2-2-|-0-|-2-2-|-0-|-2-2-|-3-2-|-0-|-2-------------------------------------|
-2|-3-0-|-2-|-3-0-|-2-|-3-0-|-1-3-|-2-|-0-------------------------------------|
-3|-----|-3-|-----|-3-|-----|-----|-3-|---------------------------------------|
 Chorus. The C, Am has a diff rhythm 2nd time. Am at end has a sliding fill.

------|-15-----------------------|-------15----------|-10---------------|-----|
------|----15--------------------|-------------------|----10------------|-----|
-2b4--|-------14b16r14-12-14-12--|-14b16----16r14b16-|-------11r9-7-9b11|-----|
------|--------------------------|-------------------|------------------|-----|
------|--------------------------|-------------------|------------------|-----|
------|--------------------------|-------------------|------------------|-----|
 Solo

-10------------------------------------|-------3------------|------------------|
----10---------------------------------|-----3--------------|------------------|
-------11r9-7-75-5-7-0h2--2b4-2b4r2-0-|-2b4-----4r2-0-2b4v-|-------------------|
---------------------------------------|--------------------|------------------|
---------------------------------------|--------------------|------------------|
---------------------------------------|--------------------|------------------|


-12----------------12----------------------|------------------------------|----|
----12----------------12-------------------|-8h10-10/12-12/13-1312-10h12-|-----|
-------16r14-12-14-------16r14-12-14-14b16-|------------------------------|----|
-------------------------------------------|------------------------------|----|
-------------------------------------------|------------------------------|----|
-------------------------------------------|------------------------------|----|


--------------------------------------------------------|---------------------|
-13-13-13-12-12-12-10-10-10-8-8-10-10/12-10-10-10-12-8v-|---------------------|
--------------------------------------------------------|-2b4r2-0-2b4v--------|
--------------------------------------------------------|---------------------|
--------------------------------------------------------|---------------------|
--------------------------------------------------------|---------------------|
Tap to rate this tab
# A B C D E F G H I J K L M N O P Q R S T U V W X Y Z