Song name
# A B C D E F G H I J K L M N O P Q R S T U V W X Y Z

Pride And Glory - Found A Friend tab

Help us improve GuitareTab! Take a short survey!
Band - Pride And Glory
Song - Found A Friend

Tuning: standard

Intro:
|--------------------------|---------------------------------|
|-8------------------------|---------------------------------|
|-7b9v--9r7-5-7-7b9-5------|-5-7b9r-5--------------------5vv-|
|---------------------5/7v-|----------7v-5h7-5-7\5-3-5/7-----|
|--------------------------|---------------------------------|
|--------------------------|---------------------------------|

Verse:
|---------0-------|-------0---------|---------1---------|-----------|
|-------3---3-----|---------1-------|-----------1-------|-----------|
|-----0-----------|-----2-----2-----|-----0h2-----2---2-|---------0-|
|---2-------------|---2-------------|---------------3---|---2-0h2---|
|-3-----------3-2-|-0-----------0---|---3---------------|-3---------|
|-----------------|---------------3-|-1-----------------|-----------|
 
 Chorus:
|-0---|-0---|-0---|-------------8------------|
|-0-5-|-0-5-|-0-5-|-5-------------8------5---|
|-0-5-|-0-5-|-0-5-|-5---2-----------b9r7-5---|
|-2-5-|-2-5-|-2-5-|-5---2-----2----------5---|
|-2-3-|-2-3-|-2-3-|-3-2-0-2-3-2----------3---|
|-0---|-0---|-0---|-----------0--------------|

Solo:
|-/8v-8/10-10\8-8/10-------|-8/10-10\8-------------------------|
|--------------------8/10v-|-----------8/10-10/11\10\8-8-------|
|--------------------------|-----------------------------9\\\\-|
|--------------------------|-------------------------------5\\-|
|--------------------------|-----------------------------------|
|--------------------------|-----------------------------------|

|------13/15-15-12/13\12------15-12/13\12------15-12/13\12-----|
|-/13v-------------------13v--------------13v--------------13v-|
|--------------------------------------------------------------|
|--------------------------------------------------------------|
|--------------------------------------------------------------|
|--------------------------------------------------------------|

|------------------------|
|-13\10-10\8-8/10\8------|
|-------------------9\\\-|
|------------------------|
|------------------------|
|------------------------|
Related for Found A Friend tab