Song name
# A B C D E F G H I J K L M N O P Q R S T U V W X Y Z

Priestess - Performance tab

----------------------------------------------------------------------------
			            Performance - Priestess
----------------------------------------------------------------------------
Tabbed by: eduardo140590
Email:eddy_dani14@hotmail.com

Tuning: 1/2 step down

  Main Riff  X2
E|--------------------------------------------------------------|
B|--------------------------------------------------------------|
G|-4-4-4-4-4-4-4-4---------------4-4-4-4-4-4-4-4----------------|
D|-4-4-4-4-4-4-4-4-4-4-4-4-4-4-4-4-4-4-4-4-4-4-4-4-4-4-7-7-9-9-7|
A|-2-2-0-2-2-0-2-0-4-4-4-4-4-4-4-2-2-0-2-2-0-2-0-4-4-4-7-7-9-9-7|
E|-----------------2-2-2-2-2-2-2-----------------2-2-2-5-5-7-7-5|

  Verse  X2
E|------------------------------------------------------------------|
B|------------------------------------------------------------------|
G|-4-4-4-4-4-4-4-4--6-6-6-6-6-6-6-6-4-4-4-4-4-4-4-4--4-4-4-4-4-4-4-4|
D|----------------------------------4-4-4-4-4-4-4-4--4-4-4-4-4-4-4-4|
A|----------------------------------2-2-0-2-2-0-2-0--2-2-0-2-2-0-2-0|
E|------------------------------------------------------------------|

E|------------------------------------------------------------------|
B|------------------------------------------------------------------|
G|-4-4-4-4-4-4-4-4--2-2-2-2-2-2-2-2-4-4-4-4-4-4-4-4--4-4-4-4-4-4-4-4|
D|----------------------------------4-4-4-4-4-4-4-4--4-4-4-4-4-4-4-4|
A|----------------------------------2-2-0-2-2-0-2-0--2-2-0-2-2-0-2-0|
E|------------------------------------------------------------------|

  Break  X1
E|----------------------------------------------------------------|
B|----------------------------------------------------------------|
G|----------------------------------------------------------------|
D|-4-4-4-4-4-4-4-5-5-5-5-5-5-5-2-2-2-2-2-2-2-4-4-4-4-4-4-4--------|
A|-4-4-4-4-4-4-4-5-5-5-5-5-5-5-2-2-2-2-2-2-2-4-4-4-4-4-4-4--------|
E|-2-2-2-2-2-2-2-3-3-3-3-3-3-3-0-0-0-0-0-0-0-2-2-2-2-2-2-2--------|

E|------------------------------------|
B|------------------------------------|
G|------------------------------------|
D|-2-2-2-2-2-2-2-2-2-2-2-2-2-2-2-2-2--|
A|-2-2-2-2-2-2-2-2-2-2-2-2-2-2-2-2-2--|
E|-0-0-0-0-0-0-0-0-0-0-0-0-0-0-0-0-0--|

  Chorus  X2
E|-----------------------------------------------------------|
B|-----------------------------------------------------------|
G|-4-4---2---4-4-7-----4-4-9-----4-4---2---------------------|
D|-4-4-4-2---4-4-7-7---4-4-9-7---4-4-4-2---------------------|
A|-2-2-4-0---2-2-5-7---2-2-7-7---2-2-4-0---------------------|
E|-----2-----------5---------5-------2-----------------------|

  After Chorus  X1 
E|----------------------------------|
B|----------------------------------|
G|----------------------------------|
D|-5-5-5-5-5-5-5-4-4-4-4-4-4-4-4-2--|
A|-5-5-5-5-5-5-5-4-4-4-4-4-4-4-4-2--|
E|-3-3-3-3-3-3-3-2-2-2-2-2-2-2-2-0--|


E|--------------------|
B|--------------------|
G|--------------------|
D|-4-4-4-7-7-9-9-7----|
A|-4-4-4-7-7-9-9-7----|
E|-2-2-2-5-5-7-7-5----|

Verse  X2
E|------------------------------------------------------------------|
B|------------------------------------------------------------------|
G|-4-4-4-4-4-4-4-4--6-6-6-6-6-6-6-6-4-4-4-4-4-4-4-4--4-4-4-4-4-4-4-4|
D|----------------------------------4-4-4-4-4-4-4-4--4-4-4-4-4-4-4-4|
A|----------------------------------2-2-0-2-2-0-2-0--2-2-0-2-2-0-2-0|
E|------------------------------------------------------------------|

E|------------------------------------------------------------------|
B|------------------------------------------------------------------|
G|-4-4-4-4-4-4-4-4--2-2-2-2-2-2-2-2-4-4-4-4-4-4-4-4--4-4-4-4-4-4-4-4|
D|----------------------------------4-4-4-4-4-4-4-4--4-4-4-4-4-4-4-4|
A|----------------------------------2-2-0-2-2-0-2-0--2-2-0-2-2-0-2-0|
E|------------------------------------------------------------------|

  Break  X1
E|----------------------------------------------------------------|
B|----------------------------------------------------------------|
G|----------------------------------------------------------------|
D|-4-4-4-4-4-4-4-5-5-5-5-5-5-5-2-2-2-2-2-2-2-4-4-4-4-4-4-4--------|
A|-4-4-4-4-4-4-4-5-5-5-5-5-5-5-2-2-2-2-2-2-2-4-4-4-4-4-4-4--------|
E|-2-2-2-2-2-2-2-3-3-3-3-3-3-3-0-0-0-0-0-0-0-2-2-2-2-2-2-2--------|

E|------------------------------------|
B|------------------------------------|
G|------------------------------------|
D|-2-2-2-2-2-2-2-2-2-2-2-2-2-2-2-2-2--|
A|-2-2-2-2-2-2-2-2-2-2-2-2-2-2-2-2-2--|
E|-0-0-0-0-0-0-0-0-0-0-0-0-0-0-0-0-0--|

  Chorus  X2
E|-----------------------------------------------------------|
B|-----------------------------------------------------------|
G|-4-4---2---4-4-7-----4-4-9-----4-4---2---------------------|
D|-4-4-4-2---4-4-7-7---4-4-9-7---4-4-4-2---------------------|
A|-2-2-4-0---2-2-5-7---2-2-7-7---2-2-4-0---------------------|
E|-----2-----------5---------5-------2-----------------------|

  After Chorus  X1 
E|-----------------------------------------------------|
B|-----------------------------------------------------|
G|-------------------------------------------------2---|
D|-5-5-5-5-5-5-5-4-4-4-4-4-4-4-4-2-2-2-2-2-2-2-2---2---|
A|-5-5-5-5-5-5-5-4-4-4-4-4-4-4-4-2-2-2-2-2-2-2-2---0---|
E|-3-3-3-3-3-3-3-2-2-2-2-2-2-2-2-0-0-0-0-0-0-0-0-------|

E|----------------------------------------------------------------------|
B|----------------------------------------------------------------------|
G|-----------------------------------------------7-7-7-7-7-7--4-4-4-4-4-|
D|-4-5-7-9--9-9-9-9-9-9--2-2-2-2-2-2-2-2--7-7-7--7-7-7-7-7-7--4-4-4-4-4-|
A|-4-5-7-9--9-9-9-9-9-9--2-2-2-2-2-2-2-2--7-7-7--5-5-5-5-5-5--2-2-2-2-2-|
E|-2-3-5-7--7-7-7-7-7-7--0-0-0-0-0-0-0-0--5-5-5-------------------------|

E|--------------------------------------------------|
B|--------------------------------------------------|
G|---------------------7-7-7-7-7-7-7-7-7-7-7-7-7----|
D|-2-2-2-2-2-2--7-7-7--7-7-7-7-7-7-7-7-7-7-7-7-7----|
A|-2-2-2-2-2-2--7-7-7--5-5-5-5-5-5-5-5-5-5-5-5-5----|
E|-0-0-0-0-0-0--5-5-5-------------------------------|

  Chorus  X4
E|-----------------------------------------------------------|
B|-----------------------------------------------------------|
G|-4-4---2---4-4-7-----4-4-9-----4-4---2---------------------|
D|-4-4-4-2---4-4-7-7---4-4-9-7---4-4-4-2---------------------|
A|-2-2-4-0---2-2-5-7---2-2-7-7---2-2-4-0---------------------|
E|-----2-----------5---------5-------2-----------------------|

  chorus  x1
E|------------------------------------------------------------|
B|------------------------------------------------------------|
G|-4-4---2---4-4-7-----4-4-9-----4-4---2--4-------------------|
D|-4-4-4-2---4-4-7-7---4-4-9-7---4-4-4-2--4-------------------|
A|-2-2-4-0---2-2-5-7---2-2-7-7---2-2-4-0--2-------------------|
E|-----2-----------5---------5-------2------------------------|

Tap to rate this tab
 
# A B C D E F G H I J K L M N O P Q R S T U V W X Y Z