Song name
# A B C D E F G H I J K L M N O P Q R S T U V W X Y Z

Priestess - Two Kids tab

---------------------------------------------------------------|
12-14-17b-17b-17b-17b-15-17-12-13-15-13------------------------|
---------------------------------------12-13-15-13-12h13p13hp12|
---------------------------------------------------------------|
---------------------------------------------------------------|
---------------------------------------------------------------|

-------------------------------------------------------|
-------------11-12-13-14-17b-17h19p-16h17b-17b-17-14-15|
10h12p10-9-10------------------------------------------|
-------------------------------------------------------|
-------------------------------------------------------|
-------------------------------------------------------|

--------------------------------------------------------|
15-12-13-15-13h15-15-13h15-15-13h15-15-13h15-15-13h15-15|
--------------------------------------------------------|
--------------------------------------------------------|
--------------------------------------------------------|
--------------------------------------------------------|

--------------------------------------------------|
13-15-13-15-12-13-15-10-12-10-12-10-9-10-12-------|
-------------------------------------------17b-17b|
--------------------------------------------------|
--------------------------------------------------|
--------------------------------------------------|

--------------------------------------4-------6------------------4-6---4--|
------------------------------5-5-3-5---5-3-5--5-3-5-1b--5-5-3-5-----5---2|
17-19-16-17-15-15-17-12-14-15---------------------------------------------|
--------------------------------------------------------------------------|
--------------------------------------------------------------------------|
--------------------------------------------------------------------------|
Tap to rate this tab
 
# A B C D E F G H I J K L M N O P Q R S T U V W X Y Z