Guitaretab - guitar tabs
Song name
# A B C D E F G H I J K L M N O P Q R S T U V W X Y Z

Priestess - Two Kids tab

-----------------------------------------------------------------------
Two Kids (ver 2) - Priestess
-----------------------------------------------------------------------
Tabbed by: Karl Schmaltz
Email: karl_schmaltz@hotmail.com

Tuning: Standard

| /  slide up
| \  slide down
| h  hammer-on
| p  pull-off
| ~  vibrato
| +  harmonic
| x  Mute note


Main Riff  X3
E|---------------------------------------------------|
B|---------------------------------------------------|
G|--------------------------------------10----8------|
D|--------------------------------------10-10-8-8----|
A|---------6-------8------------------6--8-10-6-8----|
E|-8-8-6-8---8-6-8---8-6-8-3--8-8-6-8-------8---6----|

   Verse - X2
E|------------------------------------------------------------------------|
B|------------------------------------------------------------------------|
G|----------------------------------------------10----8----5-5-5-5-5-5-5--|
D|-10-10-10-10-10-10-10-10-10-10-10-10-10-10-10-10-10-8-8--5-5-5-5-5-5-5--|
A|-10-10-10-10-10-10-10-10-10-10-10-10-10-10-10--8-10-6-8--3-3-3-3-3-3-3--|
E|--8--8--8--8--8--8--8--8--8--8--8--8--8--8--8-----8---6-----------------|

E|-------------|
B|-------------|
G|-------------|
D|-------------|
A|---1----3-1--|
E|-3--4-4------|

   Bridge  X1
E|----------------------------------------------------------|
B|----------------------------------------------------------|
G|-------------------------------12---------------5-3-------|
D|-6-6-6-6-6-6-6-6-6-6-6-6-6-6-6----6-6-6-6-6-6-6-5-3-6-5---|
A|-6-6-6-6-6-6-6-6-6-6-6-6-6-6-6-10-6-6-6-6-6-6-6-3-1-6-5---|
E|-4-4-4-4-4-4-4-4-4-4-4-4-4-4-4----4-4-4-4-4-4-4-----4-3---|

  Break  X1
E|-------------------------------------------------|
B|---------4-------6-----------------4-6---4-------|
G|-5-5-3-5---5-3-5---5-3-5---5-5-3-5-----5---3-----|
D|-------------------------5-----------------------|
A|-------------------------------------------------|
E|-------------------------------------------------|
[ Tab from: http://www.guitaretab.com/p/priestess/85798.html ]
Verse - X2
E|------------------------------------------------------------------------|
B|------------------------------------------------------------------------|
G|----------------------------------------------10----8----5-5-5-5-5-5-5--|
D|-10-10-10-10-10-10-10-10-10-10-10-10-10-10-10-10-10-8-8--5-5-5-5-5-5-5--|
A|-10-10-10-10-10-10-10-10-10-10-10-10-10-10-10--8-10-6-8--3-3-3-3-3-3-3--|
E|--8--8--8--8--8--8--8--8--8--8--8--8--8--8--8-----8---6-----------------|

E|-------------|
B|-------------|
G|-------------|
D|-------------|
A|---1----3-1--|
E|-3--4-4------|


Bridge  X1
E|----------------------------------------------------------|
B|----------------------------------------------------------|
G|-------------------------------12---------------5-3-------|
D|-6-6-6-6-6-6-6-6-6-6-6-6-6-6-6----6-6-6-6-6-6-6-5-3-6-5---|
A|-6-6-6-6-6-6-6-6-6-6-6-6-6-6-6-10-6-6-6-6-6-6-6-3-1-6-5---|
E|-4-4-4-4-4-4-4-4-4-4-4-4-4-4-4----4-4-4-4-4-4-4-----4-3---|

Solo  I did not figure it out buy use verse during solo might be a little different not 
to find out.

Bridge  X1  Might Be A Little Different
E|----------------------------------------------------------|
B|----------------------------------------------------------|
G|-------------------------------12---------------5-3-------|
D|-6-6-6-6-6-6-6-6-6-6-6-6-6-6-6----6-6-6-6-6-6-6-5-3-6-5---|
A|-6-6-6-6-6-6-6-6-6-6-6-6-6-6-6-10-6-6-6-6-6-6-6-3-1-6-5---|
E|-4-4-4-4-4-4-4-4-4-4-4-4-4-4-4----4-4-4-4-4-4-4-----4-3---|

Main Riff  X1
E|---------------------------------------------------|
B|---------------------------------------------------|
G|--------------------------------------10----8------|
D|--------------------------------------10-10-8-8----|
A|---------6-------8------------------6--8-10-6-8----|
E|-8-8-6-8---8-6-8---8-6-8-3--8-8-6-8-------8---6----|

E|-------------|
B|-------------|
G|-------------|
D|-------------|
A|---1----3-1--|
E|-3--4-4------|

   Bridge  X1
E|----------------------------------------------------------|
B|----------------------------------------------------------|
G|-------------------------------12---------------5-3-------|
D|-6-6-6-6-6-6-6-6-6-6-6-6-6-6-6----6-6-6-6-6-6-6-5-3-6-5---|
A|-6-6-6-6-6-6-6-6-6-6-6-6-6-6-6-10-6-6-6-6-6-6-6-3-1-6-5---|
E|-4-4-4-4-4-4-4-4-4-4-4-4-4-4-4----4-4-4-4-4-4-4-----4-3---|

E|---------------------------------------|
B|---------------------------------------|
G|---------------------------------------|
D|-10-10-10-10-10-10-10-10-10-10-10-10---|
A|-10-10-10-10-10-10-10-10-10-10-10-10---|
E|--8--8--8--8--8--8--8--8--8--8--8--8---|

===============================================================================
Related for Two Kids tab