Guitaretab - guitar tabs
Song name
# A B C D E F G H I J K L M N O P Q R S T U V W X Y Z

Priestess - Living Like A Dog tab

Song: Living like A Dog 
Artist: Priestess
Album: Hello Master

Tabbed By: Karl Schmaltz 
E-Mail  (karl_schmaltz@hotmail.com

  Main Riff  X2
E|------------------------------------------------------|
B|------------------------------------------------------|
G|------------------------------------------------------|
D|------------------------------------------------------|
A|-7-5---5-7----7-5---5-7----7-5---5-7----7-5---5-7-----|
E|-----7-----7------7-----7------7-----7------7-----7---|
  
  Verse  X5 
E|----------------------------------------|
B|----------------------------------------|
G|----------------------------------------|
D|----------------------------------------|
A|-7-5---5-7----7-5---5-7----7-5---5-7----|
E|-----7-----7------7-----7------7-----7--|

 Chorus  X1
E|--------------------------------------|
B|--------------------------------------|
G|----------4-4-4-4-4--7-7-7-7--9-9-9-9-|
D|-4-2-4-2--4-4-4-4-4--7-7-7-7--9-9-9-9-|
A|-4-2-4-2--2-2-2-2-2--5-5-5-5--7-7-7-7-|
E|-2-0-2-0------------------------------|

  Main Riff  X1
E|----------------------------------------|
B|----------------------------------------|
G|----------------------------------------|
D|----------------------------------------|
A|-7-5---5-7----7-5---5-7----7-5---5-7----|
E|-----7-----7------7-----7------7-----7--|
[ Tab from: http://www.guitaretab.com/p/priestess/86689.html ]
Verse  X5 
E|----------------------------------------|
B|----------------------------------------|
G|----------------------------------------|
D|----------------------------------------|
A|-7-5---5-7----7-5---5-7----7-5---5-7----|
E|-----7-----7------7-----7------7-----7--|

Chorus  X1
E|--------------------------------------|
B|--------------------------------------|
G|----------4-4-4-4-4--7-7-7-7--9-9-9-9-|
D|-4-2-4-2--4-4-4-4-4--7-7-7-7--9-9-9-9-|
A|-4-2-4-2--2-2-2-2-2--5-5-5-5--7-7-7-7-|
E|-2-0-2-0------------------------------|

  Break  Do This For A Long Time 
E|------------------------------------------------------|
B|------------------------------------------------------|
G|------------------------------------------------------|
D|------------------------------------------------------|
A|-2-2-2-2-2-2-2-2-2-2-2-2-2-2-2-2-2-2-2-2-2-2-2-2-2-2--|
E|------------------------------------------------------|

Verse  X4
E|------------------------------------------------------|
B|------------------------------------------------------|
G|------------------------------------------------------|
D|------------------------------------------------------|
A|-7-5---5-7----7-5---5-7----7-5---5-7----7-5---5-7-----|
E|-----7-----7------7-----7------7-----7------7-----7---|
  
Chorus  X1
E|--------------------------------------|
B|--------------------------------------|
G|----------4-4-4-4-4--7-7-7-7--9-9-9-9-|
D|-4-2-4-2--4-4-4-4-4--7-7-7-7--9-9-9-9-|
A|-4-2-4-2--2-2-2-2-2--5-5-5-5--7-7-7-7-|
E|-2-0-2-0------------------------------|
   
     Ending  X1
E|--------------------------------------|
B|--------------------------------------|
G|--------------------------------------|
D|--------------------------------------|
A|-7-5---5-7---7-5----------------------|
E|-----7-----7-----7-7------------------|

Related for Living Like A Dog tab