Guitaretab - guitar tabs
Song name
# A B C D E F G H I J K L M N O P Q R S T U V W X Y Z

Priestess - Shakes tab

Song: The Shakes
Artist: Priestess
Album: Hello Master

Tabbed By: Karl Schmaltz
E-Mail: (karl_schmaltz@hotmail.com

Intro
E|-----------|
B|-----------|
G|-----7-----|
D|-7-5-7-7---|
A|-7-5-5-7---|
E|-5-3---5---|

Verse  X2
E|-----------------------------------------|
B|-----------------------------------------|
G|-----------------------------------------|
D|-5/7--5/7-5/7--5/7-5/7-5/7-5/7-5/7--|
A|-5/7-5/7-5/7--5/7-5/7-5/7-5/7-5/7--|
E|-3/5-3/5-3/5-3/5-3/5--3/5-3/5-3/5--|

Verse  X2
E|---------------------------------------------|
B|---------------------------------------------|
G|---------------------------------------------|
D|-----5/7--5/7-5/7--5/7-5/7-5/7-5/7-5/7--|
A|-----5/7-5/7-5/7--5/7-5/7-5/7-5/7-5/7--|
E|-~5~-3/5-3/5-3/5-3/5-3/5--3/5-3/5-3/5--|

Lead  X2
E|---------------------------|
B|---------------------------|
G|---------------------------|
D|-7-5-77-5-7----7-5-77-5-7--|
A|-7-5-77-5-7----7-5-77-5-7--|
E|-5-3-55-3-5----5-3-55-3-5--|

Verse  X4
E|-----------------------------------------|
B|-----------------------------------------|
G|-----------------------------------------|
D|-5/7--5/7-5/7--5/7-5/7-5/7-5/7-5/7--|
A|-5/7-5/7-5/7--5/7-5/7-5/7-5/7-5/7--|
E|-3/5-3/5-3/5-3/5-3/5--3/5-3/5-3/5--|

Chorus  X4
E|-------------------------------|
B|-------------------------------|
G|-----7-------------------------|
D|-7-5-7-7--7-7-7--5-5-5--7-7-7--|
A|-7-5-5-7--7-7-7--5-5-5--7-7-7--|
E|-5-3---5--5-5-5--3-3-3--5-5-5--|

Intro
E|-----------------|
B|-----------------|
G|-----------------|
D|-5/7-5/7-5/7-5/7-|
A|-5/7-5/7-5/7-5/7-|
E|-3/5-3/5-3/5-3/5-|
[ Tab from: http://www.guitaretab.com/p/priestess/86786.html ]
Verse  X4
E|-----------------------------------------|
B|-----------------------------------------|
G|-----------------------------------------|
D|-5/7--5/7-5/7--5/7-5/7-5/7-5/7-5/7--|
A|-5/7-5/7-5/7--5/7-5/7-5/7-5/7-5/7--|
E|-3/5-3/5-3/5-3/5-3/5--3/5-3/5-3/5--|

Chorus  X4
E|-------------------------------|
B|-------------------------------|
G|-----7-------------------------|
D|-7-5-7-7--7-7-7--5-5-5--7-7-7--|
A|-7-5-5-7--7-7-7--5-5-5--7-7-7--|
E|-5-3---5--5-5-5--3-3-3--5-5-5--|

Intro
E|-----------|
B|-----------|
G|-----7-----|
D|-7-5-7-7---|
A|-7-5-5-7---|
E|-5-3---5---|

I Did Not Figure Out The Solo Sorry Use The Verse During The Solo
Verse  X4
E|-----------------------------------------|
B|-----------------------------------------|
G|-----------------------------------------|
D|-5/7--5/7-5/7--5/7-5/7-5/7-5/7-5/7--|
A|-5/7-5/7-5/7--5/7-5/7-5/7-5/7-5/7--|
E|-3/5-3/5-3/5-3/5-3/5--3/5-3/5-3/5--|


E|-------------------|
B|-------------------|
G|-------------------|
D|-7-7-7-7-7-7-7-7-7-|
A|-7-7-7-7-7-7-7-7-7-|
E|-5-5-5-5-5-5-5-5-5-|

Lead  X1
E|---------------|
B|---------------|
G|---------------|
D|-7-5-77-5-7----|
A|-7-5-77-5-7----|
E|-5-3-55-3-5----|

Chorus  X4
E|-------------------------------|
B|-------------------------------|
G|-----7-------------------------|
D|-7-5-7-7--7-7-7--5-5-5--7-7-7--|
A|-7-5-5-7--7-7-7--5-5-5--7-7-7--|
E|-5-3---5--5-5-5--3-3-3--5-5-5--|

Lead  X3
E|---------------|
B|---------------|
G|---------------|
D|-7-5-77-5-7----|
A|-7-5-77-5-7----|
E|-5-3-55-3-5----|

E|-------------------|
B|-------------------|
G|-----7-------------|
D|-7-5-7-----10--7---|
A|-7-5-5-----10--7---|
E|-5-3--------8--5---|

Related for Shakes tab