Song name
# A B C D E F G H I J K L M N O P Q R S T U V W X Y Z

Prima Donna - Double Crosser tab

Band: Prima Donna
Song: Double Crosser
Album: After Hours
Tabbed by: Sofarocker (beckmann.dt@gmail.com)

This is my very first tab, so if you have any suggestions please send me an e-mail. This 
just the rhytm guitar.


Riff 1:
E------------------------------------------------|
B------------------------------------------------|
G---------------------------------------------10-|
D---------------------------------------------10-|
A--10-10-12-10-10-10-12-10--10-10-12-10-10-10--8-|
E--8--8--8--8--8--8--8--8---8--8--8--8--8--8-----|

Riff 2:
E---------------|
B--8-8----------|
G--8-8----------|
D--8-8-10-10-10-|
A--6-6-10-10-10-|
E-------8--8--8-|


Riff 3:
E---------------------------------------|
B---------------------------------------|
G--------------------------10-10--8-8-8-|
D-10-10-10-10-10-10-10-10--10-10--8-8-8-|
A-10-10-10-10-10-10-10-10---8--8--6-6-6-|
E--8--8--8--8--8--8--8--8---------------|

Riff 4:
E--------------------------------|
B--------------------------------|
G-8-8-8-8-8-8-8-8-10-10-10-10-10-|
D-8-8-8-8-8-8-8-8-10-10-10-10-10-|
A-6-6-6-6-6-6-6-6--8--8--8--8--8-|
E--------------------------------|

Riff 5:
E------------------------------------|
B------------------------------------|
G---------------------------------10-|
D---------------------------------10-|
A-10-10-12-10-10-10-12-10-10-10----8-|
E--8--8--8--8--8--8--8--8--8--8------|

Order:
Riff 1 x4
Riff 2 x2
Riff 1 x3
Riff 2 x2
Riff 1 x3
Riff 2 x2
Riff 3 x3
Riff 4 x1
Riff 1 x2
Riff 2 x4
Riff 1 x3
Riff 2 x2
Riff 1 x3
Riff 2 x2
Riff 3 x3
Riff 4 x1
Riff 3 x3
Riff 4 x2
Riff 1 x2
Riff 2 x4
Riff 5 x1
Tap to rate this tab
# A B C D E F G H I J K L M N O P Q R S T U V W X Y Z