Song name
# A B C D E F G H I J K L M N O P Q R S T U V W X Y Z

Primal Fear - Bad Guys Wear Black tab

Primal Fear - Bad Guys wear black

standard tuning

E----------------|
B----------------|
G----------------|
D----------------| 7 times
A----------------|
E-0-0-0-0--------|

E-----------------|
B-----------------|
G------7----------|
D------7----------|
A------5----------|
E-0-0-------------|

E----------------|
B----------------|
G----------------|
D----------------| 3 times
A----------------|
E-0-0-0-0--------|


E-------------------------|
B-------------------------|
G-------------------------|
D-------------------------| 2 times
A-3-2---2-----------------|
E-----5---5-3-5-3-2-3-2-0-|

E-------------------------------------------------------------------|
B-------------------------------------------------------------------|
G-5--5-----------------------------7--9---------------------------7-|
D-5--5-----------------------------7--9---------------------------7-| 2 times
A-3--3-----------------------------5--7---------------------------5-|
E------0-0-3-2-0-2-0-0-3-2-0-2-0--------0-3-2-0-2-0-0-3-2-0-2-0-----|

E----------------------|
B----------------------|
G-4---4-4-4-4----------|
D-4---4-4-4-4----------|
A-2---2-2-2-2----------|
E----------------------|

rit

E----------------------------------|
B----------------------------------|
G----------5-----7--5--------------|
D-2--5--2--5--2--7--5--5-5-7-7-----| 2 times
A-2--5--2--3--2--5--3--5-5-7-7-----|
E-0--3--0-----0--------3-3-5-5-----|

during guitar solo

E----------------|
B----------------|
G----------------|
D-2-4------------|8 times
A-2-4------------|
E-0-2-2-2--------|

E----------------|
B----------------|
G----------------|
D-2--------------|
A-2--------------|
E-0--------------|

solo
   bend                                            A.H.
E------------------------------------------------------|
B------------------------------------------------------|
G-4----4-2-4-2-------------------2---2-4-2-4-5-4-2-2---|
D--------------------2---2-4-2-4---4-------------------|
A--------------2-3-4---4-------------------------------|
E------------------------------------------------------|
--

                                                                   bend
E----------------------------------------------------------------------|
B---------------------------------------------------------14-17-14-17--|
G-16---16-14-16-14--------------------------14-16-14-16----------------|
D------------------------------14-16-14-16-----------------------------|
A--------------------14-15-16------------------------------------------|
E----------------------------------------------------------------------|

E-----------12-10-12-13-12-10-12-10----|
B--13-10-13-------------------------13-|
G--------------------------------------|
D--------------------------------------|
A--------------------------------------|
E--------------------------------------|

E-----------12-10-12-13-12-10----------|
B--13-10-13-------------------12-------|
G--------------------------------------|
D--------------------------------------|
A--------------------------------------|
E--------------------------------------|

E-----------12-10-12-13-12-10-12-10----|
B--13-10-13-------------------------13-|
G--------------------------------------|  2 times
D--------------------------------------|
A--------------------------------------|
E--------------------------------------|


E-15-13-12-13-12-10-12-10-8-10-8-7-----|
B--------------------------------------|
G--------------------------------------| first time
D--------------------------------------|
A--------------------------------------|
E--------------------------------------|


E-19-17-15-17-15-13-15-13-12-13-12-10-----------|
B-------------------------------------12--------|
G-----------------------------------------------| second time
D-----------------------------------------------|
A-----------------------------------------------|
E-----------------------------------------------|

E------------------|
B------------------|
G------------------|
D-9-8-7------------|
A-9-8-7------------|
E-7-6-5------------|


Tabbed by Antonio P. from Rende
Tap to rate this tab
 
# A B C D E F G H I J K L M N O P Q R S T U V W X Y Z