Song name
# A B C D E F G H I J K L M N O P Q R S T U V W X Y Z

Primal Scream - Suicide Sally And Johnny Guitar tab

Artist: Primal Scream 
Song: Suicide Sally and Johnny Guitar
Album: Riot City Blues
Tunning: Standard
Tabbed By: Indie Nation




() = Tied note

Main Riff: Played Throughout the whole song

   F                     C                            A
e|--------------------------|---------------------------|
B|--------------------------|---------------------------|
G|--------------------------|---------------------------|
D|-10--10-12----10-10-12----|---------------------------|
A|-8---8--8--8--8--8--8--10-|-(10)-10-12----10-10-12--7-|
E|-----------------------8--|-(8)--8--8--8--8--8--8---5-|
    A                                       F
e|---------------------|----------------------|
B|---------------------|----------------------|
G|---------------------|----------------------|
D|---------------------|-------------------10-|
A|-(7)-7-9----7-7-9--7-|-(7)-7-9----7-7-9--8--|
E|-(5)-5-5-5--5-5-5--5-|-(5)-5-5-5--5-5-5-----|



   F           C
Suicide Sally and Johnny Guitar
A 
She overdosed and crashed in a car
F                        C
amphetamine George, shot a hole in his head
A
ran out of veins, and ran out of friends


F        C
Alright, Alright
A
Oh Baby baby you're doing alright
F        C
Alright, Alright
A
Oh Baby baby you're doing alright


F              C 
Gearhead candy the nitro queen
A
Bad motorcycle, you know what I mean
F                      C
She got her wings, givin' head to a priest
A
The Fucker choked on his rosary beads


F        C
Alright, Alright
A
Oh Baby baby you're doing alright
F        C
Alright, Alright
A
Oh Baby baby you're doing alright


Solo:

e|-8---8---8---8---8---8---8---8---|-10--10--10--10--10--10--10--10--|
B|-11b-11b-11b-11b-11b-11b-11b-11b-|-13b-13b-13b-13b-13b-13b-13b-13b-|
G|---------------------------------|---------------------------------|
D|---------------------------------|---------------------------------|
A|---------------------------------|---------------------------------|
E|---------------------------------|---------------------------------|

e|-12--12--12--12--12--12--12--12--|-12--12--12--12--12--12--12--12--|
B|-15b-15b-15b-15b-15b-15b-15b-15b-|-15b-15b-15b-15b-15b-15b-15b-15b-|
G|---------------------------------|---------------------------------|
D|---------------------------------|---------------------------------|
A|---------------------------------|---------------------------------|
E|---------------------------------|---------------------------------|

e|-8---8---8---8---8---8---8---8---|-10--10--10--10--10--10--10--10--|
B|-11b-11b-11b-11b-11b-11b-11b-11b-|-13b-13b-13b-13b-13b-13b-13b-13b-|
G|---------------------------------|---------------------------------|
D|---------------------------------|---------------------------------|
A|---------------------------------|---------------------------------|
E|---------------------------------|---------------------------------|

e|-12--12--12--12--12--12--12--12--|-12--12--12--12--12--12--12---15-|
B|-15b-15b-15b-15b-15b-15b-15b-15b-|-15b-15b-15b-15b-15b-15b-15b-----|
G|---------------------------------|---------------------------------|
D|---------------------------------|---------------------------------|
A|---------------------------------|---------------------------------|
E|---------------------------------|---------------------------------|

e|-(15)----15----15----15-|-(15)----15----15----15-|-(15)----15----15----15----|
B|------16----16----16----|------16----16----16----|------16----16----16----16-|
G|------------------------|------------------------|---------------------------|
D|------------------------|------------------------|---------------------------|
A|------------------------|------------------------|---------------------------|
E|------------------------|------------------------|---------------------------|

e|-15----15----15\20/12-|-17p15-----------17p15---15-------|
B|----16----16----------|------17p15-17p15-----17---17p15--|
G|----------------------|----------------------------------|
D|----------------------|----------------------------------|
A|----------------------|----------------------------------|
E|----------------------|----------------------------------|

e|-17p15----15------17---------15-17-|-17b19---17b19r17--15-------|
B|------17----17p15---15-15-17-------|----------------------17b19-|
G|-----------------------------------|----------------------------|
D|-----------------------------------|----------------------------|
A|-----------------------------------|----------------------------|
E|-----------------------------------|----------------------------|

e|-------------------------------------------|
B|-17b19-17b19-17b19-17b19-17b19r17--15-17b--|
G|-------------------------------------------|
D|-------------------------------------------|
A|-------------------------------------------|
E|-------------------------------------------|



F               C
Silicone Sally is a scalpel whore
A
Her face is plastic, so is her soul
F                  C
She hates her body coz she is a he
A
Stripteased and Prick teased, feel her disease



F        C
Alright, Alright
A
Oh Baby baby you're doing alright
F        C
Alright, Alright
A
Oh Baby baby you're doing alright


F                      C
Hey rock n roll doctor a rock n roll nurse
A
Give me a shot, and give me some pills
F                 C
Dont need a knife I dont need a gun
A
I gotta crown made of human skull

F        C
Alright, Alright
A
Oh Baby baby you're doing alright
F        C
Alright, Alright
A
Oh Baby baby you're doing alright


F               C                    A
Na na   na   na na na   na na na na  na____
F5
Rock and Roll Doctor

Tap to rate this tab
# A B C D E F G H I J K L M N O P Q R S T U V W X Y Z