Song name
# A B C D E F G H I J K L M N O P Q R S T U V W X Y Z

Primal Scream - When The Bomb Drops tab

Artist: Primal Scream
Song: When The Bomb Drops
Album: Riot City Blues
Tunning Standard
Tabbed By: Indie Nation


Intro:

e|----------------|------------------|
B|----------------|------------------|
G|----------------|------------------|
D|----------------|------------------|
A|------3---1---3-|------3-----4---3-|
E|--1-1---1---1---|--1-1---1-1---1---|


e|-----------4--6-|-8--6-8---8---8-8-|-11--11-8--8--11-13-|-12--11--13-11-13-|
B|----------------|------------------|--------------------|------------------|
G|----------------|------------------|--------------------|------------------|
D|----------------|------------------|--------------------|------------------|
A|----------------|------------------|--------------------|------------------|
E|----------------|------------------|--------------------|------------------|

e|-13--11-13-14-15~~~~---|
B|-----------------------|
G|-----------------------|
D|-----------------------|
A|-----------------------|
E|-----------------------|



Verse:

e|----------------|------------------|
B|----------------|------------------|
G|----------------|------------------|
D|----------------|------------------| x4
A|------3---1---3-|------3-----4---3-|
E|--1-1---1---1---|--1-1---1-1---1---|


e|----------------|------------------|
B|----------------|------------------|
G|----------------|------------------|
D|------3---1---3-|------3-----4---3-| 
A|--1-1---1---1---|--1-1---1-1---1---|
E|----------------|------------------|

e|----------------|------------------|
B|----------------|------------------|
G|----------------|------------------|
D|------3---1---3-|------3-----4---3-| 
A|--1-1---1---1---|--1-1---1-1---1---|
E|----------------|------------------|

e|----------------|------------------|
B|----------------|------------------|
G|----------------|------------------|
D|----------------|------------------| 
A|------3---1---3-|------3-----4---3-|
E|--1-1---1---1---|--1-1---1-1---1---|


e|----------------|------------------|
B|----------------|------------------|
G|----------------|------------------|
D|----------------|------------------| 
A|------3---1---3-|------3-----4---3-|
E|--1-1---1---1---|--1-1---1-1---1---|


Chorus:

e|-----------------|-----------------|-----------------|-----------------|
B|-----------------|-----------------|-----------------|-----------------|
G|-----------------|-----------------|-----------------|-----------------|
D|-----5-----5---5-|-----5-----5---5-|-----3-----1---3-|-----3-----1---3-|
A|-3-3---3-3---3---|-3-3---3-3---3---|-1-1---1-1---1---|-1-1---1-1---1---|
E|-----------------|-----------------|-----------------|-----------------|

e|----------------|------------------|
B|----------------|------------------|
G|----------------|------------------|
D|----------------|------------------| 
A|------3---1---3-|------3-----4---3-|
E|--1-1---1---1---|--1-1---1-1---1---|

e|----------------|------------------|
B|----------------|------------------|
G|----------------|------------------|
D|----------------|------------------| 
A|------3---1---3-|------3-----4---3-|
E|--1-1---1---1---|--1-1---1-1---1---|



Solo:

e|---------------------------|---------------------|--------------------------|
B|--13---13-13----13--11--13-|-13--13--------------|-13---13-13----13--11--13-|
G|---------------------------|--------13--12-10-12-|--------------------------|
D|---------------------------|---------------------|--------------------------|
A|---------------------------|---------------------|--------------------------|
E|---------------------------|---------------------|--------------------------|


e|-13-13-13-13-13-13-13-15-|-16-15-15-13-13-13-13----|
B|-------------------------|----------------------16-|
G|-------------------------|-------------------------|
D|-------------------------|-------------------------|
A|-------------------------|-------------------------|
E|-------------------------|-------------------------|

e|-------------------------|-------------------------|----------------------|
B|-16-16-16-13-13-13-13-13-|-13-13-13\11-11-11-11-11-|-11-11-11\9-\8-\6-6-8-|
G|-------------------------|-------------------------|----------------------|
D|-------------------------|-------------------------|----------------------|
A|-------------------------|-------------------------|----------------------|
E|-------------------------|-------------------------|----------------------|


e|-----------------|-----------------|--------------------------------|
B|-6-6-6-6-6-6-6-6-|-6-8-8-8-6-8b8.5-|-r8b8.5--r8b8.5--r8b8.5--r8b8.5-|
G|-----------------|-----------------|--------------------------------|
D|-----------------|-----------------|--------------------------------|
A|-----------------|-----------------|--------------------------------|
E|-----------------|-----------------|--------------------------------|

e|-----------------|
B|-r8--6p4-6-6--6/-|
G|-----------------|
D|-----------------|
A|-----------------|
E|-----------------|


Verse:

e|----------------|------------------|
B|----------------|------------------|
G|----------------|------------------|
D|----------------|------------------| x4 
A|------3---1---3-|------3-----4---3-|
E|--1-1---1---1---|--1-1---1-1---1---|

e|----------------|------------------|
B|----------------|------------------|
G|----------------|------------------|
D|------3---1---3-|------3-----4---3-| 
A|--1-1---1---1---|--1-1---1-1---1---|
E|----------------|------------------|

e|----------------|------------------|
B|----------------|------------------|
G|----------------|------------------|
D|------3---1---3-|------3-----4---3-| 
A|--1-1---1---1---|--1-1---1-1---1---|
E|----------------|------------------|

e|----------------|------------------|
B|----------------|------------------|
G|----------------|------------------|
D|----------------|------------------| 
A|------3---1---3-|------3-----4---3-|
E|--1-1---1---1---|--1-1---1-1---1---|


e|----------------|------------------|
B|----------------|------------------|
G|----------------|------------------|
D|----------------|------------------| 
A|------3---1---3-|------3-----4---3-|
E|--1-1---1---1---|--1-1---1-1---1---|


Chorus:

e|-----------------|-----------------|-----------------|-----------------|
B|-----------------|-----------------|-----------------|-----------------|
G|-----------------|-----------------|-----------------|-----------------|
D|-----5-----5---5-|-----5-----5---5-|-----3-----1---3-|-----3-----1---3-|
A|-3-3---3-3---3---|-3-3---3-3---3---|-1-1---1-1---1---|-1-1---1-1---1---|
E|-----------------|-----------------|-----------------|-----------------|

e|----------------|------------------|
B|----------------|------------------|
G|----------------|------------------|
D|----------------|------------------| 
A|------3---1---3-|------3-----4---3-|
E|--1-1---1---1---|--1-1---1-1---1---|

e|----------------|------------------|
B|----------------|------------------|
G|----------------|------------------|
D|----------------|------------------| 
A|------3---1---3-|------3-----4---3-|
E|--1-1---1---1---|--1-1---1-1---1---|


Solo:

e|---------------------------|---------------------|--------------------------|
B|--13---13-13----13--11--13-|-13--13--------------|-13---13-13----13--11--13-|
G|---------------------------|--------13--12-10-12-|--------------------------|
D|---------------------------|---------------------|--------------------------|
A|---------------------------|---------------------|--------------------------|
E|---------------------------|---------------------|--------------------------|


e|-13-13-13-13-13-13-13-15-|-16-15-15-13-13-13-13----|
B|-------------------------|----------------------16-|
G|-------------------------|-------------------------|
D|-------------------------|-------------------------|
A|-------------------------|-------------------------|
E|-------------------------|-------------------------|

e|-------------------------|-------------------------|----------------------|
B|-16-16-16-13-13-13-13-13-|-13-13-13\11-11-11-11-11-|-11-11-11\9-\8-\6-6-8-|
G|-------------------------|-------------------------|----------------------|
D|-------------------------|-------------------------|----------------------|
A|-------------------------|-------------------------|----------------------|
E|-------------------------|-------------------------|----------------------|


e|-----------------|-----------------|--------------------------------|
B|-6-6-6-6-6-6-6-6-|-6-8-8-8-6-8b8.5-|-r8b8.5--r8b8.5--r8b8.5--r8b8.5-|
G|-----------------|-----------------|--------------------------------|
D|-----------------|-----------------|--------------------------------|
A|-----------------|-----------------|--------------------------------|
E|-----------------|-----------------|--------------------------------|

e|-----------------|--------------------------|-----------------|
B|-r8--6p4-6-6--6/-|-/13-13-13-11-9-8-9p8h9p8-|-8-6-----6----6--|
G|-----------------|--------------------------|------8----------|
D|-----------------|--------------------------|-----------------|
A|-----------------|--------------------------|-----------------|
E|-----------------|--------------------------|-----------------|


e|-8h9-8-8-6-8-9-|-8tr(9)--8-6-------|----------------|-----------------|
B|---------------|--------------9--9-|-8h9p8-6----8-9-|-8-6-8-6-8-6-8-6-|
G|---------------|-------------------|----------------|-----------------|
D|---------------|-------------------|----------------|-----------------|
A|---------------|-------------------|----------------|-----------------|
E|---------------|-------------------|----------------|-----------------|

e|----------|------------|------------|------------|
B|----------|------------|------------|------------|
G|----------|------------|------------|------------|
D|----------|------------|------------|------------|
A|----------|------------|------------|------------|
E|-1--------|-(1)--------|-(1)--------|-(1)--------|


e|------------------|------------------|------------------|------------------|
B|------------------|------------------|------------------|------------------|
G|------------------|------------------|------------------|------------------|
D|----10---------10-|----10---------10-|----10---------10-|----10---------10-|
A|-8-----8-8-13-----|-8-----8-8-13-----|-8-----8-8-13-----|-8-----8-8-13-----|
E|------------------|------------------|------------------|------------------|


Verse:

e|----------------|------------------|
B|----------------|------------------|
G|----------------|------------------|
D|----------------|------------------| x4
A|------3---1---3-|------3-----4---3-|
E|--1-1---1---1---|--1-1---1-1---1---|

e|----------------|------------------|
B|----------------|------------------|
G|----------------|------------------|
D|------3---1---3-|------3-----4---3-| 
A|--1-1---1---1---|--1-1---1-1---1---|
E|----------------|------------------|

e|----------------|------------------|
B|----------------|------------------|
G|----------------|------------------|
D|------3---1---3-|------3-----4---3-| 
A|--1-1---1---1---|--1-1---1-1---1---|
E|----------------|------------------|

e|----------------|------------------|
B|----------------|------------------|
G|----------------|------------------|
D|----------------|------------------| 
A|------3---1---3-|------3-----4---3-|
E|--1-1---1---1---|--1-1---1-1---1---|


e|----------------|------------------|
B|----------------|------------------|
G|----------------|------------------|
D|----------------|------------------| 
A|------3---1---3-|------3-----4---3-|
E|--1-1---1---1---|--1-1---1-1---1---|


Chorus:

e|-----------------|-----------------|-----------------|-----------------|
B|-----------------|-----------------|-----------------|-----------------|
G|-----------------|-----------------|-----------------|-----------------|
D|-----5-----5---5-|-----5-----5---5-|-----3-----1---3-|-----3-----1---3-|
A|-3-3---3-3---3---|-3-3---3-3---3---|-1-1---1-1---1---|-1-1---1-1---1---|
E|-----------------|-----------------|-----------------|-----------------|

e|----------------|------------------|
B|----------------|------------------|
G|----------------|------------------|
D|----------------|------------------| 
A|------3---1---3-|------3-----4---3-|
E|--1-1---1---1---|--1-1---1-1---1---|

e|----------------|------------------|
B|----------------|------------------|
G|----------------|------------------|
D|----------------|------------------| 
A|------3---1---3-|------3-----4---3-|
E|--1-1---1---1---|--1-1---1-1---1---|



Outro:

e|----------------------|--------------|-----------------------|-----------|
B|-11-11-11-11-11-9-8-6-|-8-6-6-----6/-|-/11-11-11-11--9-8-6-8-|-6----6/11-|
G|----------------------|---------8----|-----------------------|---8-------|
D|----------------------|--------------|-----------------------|-----------|
A|----------------------|--------------|-----------------------|-----------|
E|----------------------|--------------|-----------------------|-----------|

e|---------------------|---------------|-8--8-8----6--8--6--8-|-8--6--8--6-8-6-8/13-|
B|-11-11-11-9-11-9-8-6-|-8------6----6-|----------------------|---------------------|
G|---------------------|------8--------|----------------------|---------------------|
D|---------------------|---------------|----------------------|---------------------|
A|---------------------|---------------|----------------------|---------------------|
E|---------------------|---------------|----------------------|---------------------|

e|-------------------------|-------------------------|
B|-------------------------|-------------------------|
G|-------------------------|-------------------------|
D|-10-10-10-10-10-10-10-10-|-10-10-10-10-10-10-10-8--| x8
A|-8--8--8--8--8--8--8--8--|-8--8--8--8--8--8--8--6--|
E|-------------------------|-------------------------|

e|----------|----------|----------|------------|--------------|
B|----------|----------|----------|------------|--------------|
G|----------|----------|----------|------------|--------------|
D|----------|----------|----------|------------|--------------|
A|----------|----------|----------|------------|--------------|
E|-1--------|-(1)------|-(1)------|-(1)--1\----|-13\1/13\1/13-| 

Tap to rate this tab
 
# A B C D E F G H I J K L M N O P Q R S T U V W X Y Z