Song name
# A B C D E F G H I J K L M N O P Q R S T U V W X Y Z

Primal Scream - Kill All Hippies tab

-------------------------------------------------------------------------------
			     KILL ALL HIPPIES - Primal Scream
-------------------------------------------------------------------------------
Tabbed by: Emmett C
Email: emmettcruddas@hotmail.co.uk

Tuning: Standard

On the recording you only hear Mani's bass but live all the guitarists play this riff at 
beginning with a wah pedal

e|---------------------------------------------------------------------------|
B|---------------------------------------------------------------------------|
G|---------------------------------------------------------------------------|
D|--3-1-3---3-1-3---3-1-3---3-1-3---3-1-3---3-1-3----------------------3-----|
A|-------------------------------------------------1-2-3---------1-2-3-------|
E|---------------------------------------------------------------------------|

after this is played a few times the keyboard comes in with this:

                              [x6]
e|----------------------------------------------|
B|----------------------------------------------|
G|-3---1--------------------------3---1---------|
D|---3---1-3------3---1-------------3---1-3-----|
A|------------------3---1-3---------------------|
E|----------------------------------------------|

the bass riff for the rest of the song is:

e|---------------------------------------|
B|---------------------------------------|
G|---------------------0-1---------------|
D|--1-3-3------1---1-3--------1----------|
A|-----------3---3----------3---3--------|
E|---------------------------------------|

Or if you want the chords theyre just

Fm       Fm       Cm     Fm

thats basically it
email me with any suggestions

heres an example of the live version if you want to hear the guitar parts
http://www.youtube.com/watch?v=f3g8WLjkVXk
Tap to rate this tab
 
# A B C D E F G H I J K L M N O P Q R S T U V W X Y Z