Song name
# A B C D E F G H I J K L M N O P Q R S T U V W X Y Z

Primal Scream - Country Girl tab

Help us improve GuitareTab! Take a short survey!
[Verse 1]
F
You never get too big, you never get too heavy

You never get too cool, that you stop payin' your dues
  Bb                    F
Oh Yeah, what can a poor boy do?
           C               Bb            F
You better go back to your mama, she'll take care of you

[Verse 2]
F
Lost your wife, lost your son

Stayed out drinkin' 'till the morning come
  Bb                    F
Oh Yeah, what can a poor boy do?
           C               Bb            F
You better go back to your mama, she'll take care of you

[Chorus 1]
F
Country girl, take my hand
      Bb
Lead me through this diseased land
    F                 C
I am tired, I am weak, I am worn
      F
I have stole, I have sinned
      Bb
Oh my soul, It's unclean
    F         C             F
Country girl got to keep on keeping on

[Verse 3]
F
Crazy women, mess your head

Wake up drunk & bleeding, in some strange bed
  Bb                  F
Oh yeah, what can a poor boy do?
         C              Bb           F
You better go back to your mama, she'll take care of you

[Chorus 2]
F
Country girl, take my hand
      Bb
Lead me through this diseased land
    F                 C
I am tired, I am weak, I am worn
      F
I have stole, I have sinned
      Bb
Oh my soul, It's unclean
    F         C             F
Country girl got to keep on keeping on

[Bridge]
F        Bb         F
You gotta keep on keepin' on
F        Bb         F
You gotta keep on keepin' on
F        Bb         F
You gotta keep on keepin' on
F     C  (Stop)          F
When you........got the riot city blues

[Solo]

E|-13--13-13-13--13--13-13-13--15--13-17--17-17-17--17--17-17-17--17--|
B|-13--13-13-13--13--13-13-13--13--13-18--18-18-18--18--18-18-18--18--|
G|-14--14-14-14--14--14-14-14--14--14-17--17-17-17--17--17-17-17--17--|
D|--------------------------------------------------------------------|
A|--------------------------------------------------------------------|
E|--------------------------------------------------------------------|

E|-13--13-13-13--13--13-13-13--15--13-17--17-17-17--17--17-17-17--17--|
B|-13--13-13-13--13--13-13-13--13--13-18--18-18-18--18--18-18-18--18--|
G|-14--14-14-14--14--14-14-14--14--14-17--17-17-17--17--17-17-17--17--|
D|--------------------------------------------------------------------|
A|--------------------------------------------------------------------|
E|--------------------------------------------------------------------|

E|-10--10-10-10--10--10-10-10--12--10--13--13-13-13--13-13-13--13--10-|
B|-11--11-11-11--11--11-11-11--11--11--11--11-11-11--11-11-11--11--11-|
G|-10--10-10-10--10--10-10-10--10--10--10--10-10-10--10-10-10--10--10-|
D|--------------------------------------------------------------------|
A|--------------------------------------------------------------------|
E|--------------------------------------------------------------------|

E|-13--13-13-13--13--13-13-13--15--13-17--17-17-17--17--17-17-17--17--|
B|-13--13-13-13--13--13-13-13--13--13-18--18-18-18--18--18-18-18--18--|
G|-14--14-14-14--14--14-14-14--14--14-17--17-17-17--17--17-17-17--17--|
D|--------------------------------------------------------------------|
A|--------------------------------------------------------------------|
E|--------------------------------------------------------------------|

E|-12--12-12-12-12--12--12-13--15--18--18-18-18--18--18-18-17--15-----|
B|-13--13-13-13-13--13--13-13--13--15--15-15-15--15--15-15-15--15-----|
G|-12--12-12-12-12--12--12-12--12--15--15-15-15--15--15-15-15--15-----|
D|--------------------------------------------------------------------|
A|--------------------------------------------------------------------|
E|--------------------------------------------------------------------|

E|-13--13-13-13-------13-13-13------13--13-13-13-------13-13-13-----13-|
B|-13--13-13-13-11/13-13-13-13--13--13--13-13-13-11/13-13-13-13--13-13-|
G|-14--14-14-14-12/14-14-14-14--12--14--14-14-14-12/14-14-14-14--12-14-|
D|---------------------------------------------------------------------|
A|---------------------------------------------------------------------|
E|---------------------------------------------------------------------|

[Verse 4]
F
One thing I have to sat, before I have to go

Be careful with your seed, you will just reap just what you sow
  Bb                    F
Oh Yeah, what can a poor boy do? What can I do?
           C               Bb            F
You better go back to your mama, she'll take care of you.....One last time

[Chorus 3&4]
F
Country girl, take my hand
      Bb
Lead me through this diseased land
    F                 C
I am tired, I am weak, I am worn
      F
I have stole, I have sinned
      Bb
Oh my soul, It's unclean
    F         C             F
Country girl got to keep on keeping on
F
Country girl, take my hand
      Bb
Lead me through this diseased land
    F                 C
I am tired, I am weak, I am worn
      F
I have stole, I have sinned
      Bb
Oh my soul, It's unclean
    F         C             F
Country girl got to keep on keeping on

[Ending]
    F         C             Bb    F
Country girl got to keep on keeping on

Hope you enjoyed the tab, contact me via ultimate guitar for feedback please
Related for Country Girl tab