Song name
# A B C D E F G H I J K L M N O P Q R S T U V W X Y Z

Primal Scream - Rocks tab

Primal Scream - Rocks

Transcribed by Antony Horne

Intro                     Gtr2
  A         G     D          A         G
e--------------3--2-------:--5--5---5--3----------------------|
B--------------3--3-------:--5--5---5--3----------------------|
G--------------0--2-2-2---;--2--2---2--0----------------------|
D-2---2-----0-----0-0-0---:--2--2---2--0-------2--------------|
A-0---0-----2-------------:--0--0---0-----3b4--0--------------|
E---2---2-0-3-------------:-----------------------------------|

Verse
  A                                 G  D
e-------------------------------------------------------------|
B--------------------------------------3----------------------|
G--------------------------------------0----------------------|
D-2-4-2-----2-4-2---2-4-2-----2-----5--4----------------------|
A-0-0-0-3b4-0-0-0---0-0-0-3b4-0-----5--5----------------------|
E-----------------------------------3-------------------------|

Pre Chorus
  E            G               A
e-------------------------------------------------------------|
B-------------------------------------------------------------|
G--------------------------------------2-------2-----2---2----|
D-9-9-11-11-9--12-12-14-14-12--2-2-----2------ 2-----2---2----|
A-7-7-7--7--7--10-10-10-10-10--0-0-3-4---0-3-4---3-4---0------|
E-------------------------------------------------------------|


Pre Chorus
  E            G               D
e-----------------------------------10------10------10--------|
B-----------------------------------10------10------10--------|
G------------------------------10h11----10h11---10h11---------|
D-9-9-11-11-9--12-12-14-14-12--0--------0-------0-------------|
A-7-7-7--7--7--10-10-10-10-10---------------------------------|
E-------------------------------------------------------------|

Chourus
  A        G        D
e-------------------------------------------------------------|
B-------------------------------------------------------------|
G-------------------2-2-----2-------2-----2-------------------|
D-2-4-4-2-----------0-0-3h4-0-0-3h4-0-3h4-0-------------------|
A-0-0-0-0--5-7-7-5--------------------------------------------|
E----------3-3-3-3--------------------------------------------|


Solo                                  rpt
e-------------------------------------:------------------------|
B---7p5---5---5-------5-7-7b8b7-5-----:------------------------|
G---7p5---5---5-------5-7-7b8b7-5-----:------------------------|
D-7-----7---7---7---7-------------7---:------------------------|
A-------------------------------------:------------------------|
E-------------------------------------:------------------------|

                  rpt
e-------------------:-------15--------------------------------|
B----15p13----13----:-15b17----17b15-13-----------------------|
G-14-------14----14-:-----------------------------------------|
D-------------------:-----------------------------------------|
A-------------------:-----------------------------------------|
E-------------------:-----------------------------------------|


e----20p17----17---------20p17----20b22b20-17-17-17-----------|
B-17-------20----17---17-------17-----------------------------|
G-------------------------------------------------------------|
D-------------------------------------------------------------|
A-------------------------------------------------------------|
E-------------------------------------------------------------|
Tap to rate this tab
 
# A B C D E F G H I J K L M N O P Q R S T U V W X Y Z