Song name
# A B C D E F G H I J K L M N O P Q R S T U V W X Y Z

Primal Scream - Loaded tab

-----------------------------------------------------------------------------
                             LOADED - Primal Scream
-----------------------------------------------------------------------------
Tabbed by: Seismatters
Tuning: Standard E A D G B E


                   "Just what is it that you want to do?
                    We wanna be free
                    We wanna be free to do what we wanna do
                    And we wanna get loaded
                    And we wanna have a good time
                    That's what we're gonna do
                    No way baby let's go
                    We're gonna have a good time
                    We're gonna have a party"

Intro x2
E                              D
  I don't wanna lose your love
A                              E
  I don't wanna lose your love

Main chords (Played throughout entire song)

E x4
D x4
A x4
E x4

Intro Riff
e|-4-4-4-5-4-2-2-2-3-2-----------4-4-4-5-4-----------------------------------|
B|---------------------5-5-5-7-5---------------------------------------------|
G|---------------------------------------------------------------------------|
D|---------------------------------------------------------------------------|
A|---------------------------------------------------------------------------|
E|---------------------------------------------------------------------------|

Main Riff
e|-------0-0---0----------------------------------------------------------------|
B|-0-0-2-----2------3----5-3-2-0-2----3-2-0---0---------------------------------|
G|------------------------------------------2-----------------------------------|
D|------------------------------------------------------------------------------|
A|------------------------------------------------------------------------------|
E|------------------------------------------------------------------------------|
Tap to rate this tab
# A B C D E F G H I J K L M N O P Q R S T U V W X Y Z