Song name
# A B C D E F G H I J K L M N O P Q R S T U V W X Y Z

Prime Circle - As Long As I Remember tab

Help us improve GuitareTab! Take a short survey!
-------------------------------------------------------------------------------
			     As Long As I Remember - Prime Circle
-------------------------------------------------------------------------------
Tabbed by: Erle Vaughan
Email: erle_vaughan@yahoo.com

Can someone do the chorus? 

Tuning:Standard

e||----------------------|----------------------|----------------------|
B||--8---------8---------|----------------------|----------------------|
G||----------------------|--9---------9---------|--9---------9---------|
D||----------------------|----------------------|----------------------|
A||-------7---------7----|----------------------|----------------------|
E||----------------------|-------8---------8----|-------8---------8----|



    
----------------------|----------------------|----------------------|
----------------------|--8---------8---------|----------------------|
--8---------8---------|----------------------|--9---------9---------|
----------------------|----------------------|----------------------|
----------------------|-------7---------7----|----------------------|
-------7---------7----|----------------------|-------8---------8----|


    
----------------------|----------------------|----------------------|
----------------------|----------------------|--8---------8---------|
--9---------9---------|--8---------8---------|----------------------|
----------------------|----------------------|----------------------|
----------------------|----------------------|-------7---------7----|
-------8---------8----|-------7---------7----|----------------------|



  
----------------------|----------------------|----------------------||
----------------------|----------------------|----------------------||
--9---------9---------|--9---------9---------|--8---------8---------||
----------------------|----------------------|----------------------||
----------------------|----------------------|----------------------||
-------8---------8----|-------8---------8----|-------7---------7----||
| /  slide up
| \  slide down
| h  hammer-on
| p  pull-off
| ~  vibrato
| +  harmonic
| x  Mute note
===============================================================================
Related for As Long As I Remember tab