Song name
# A B C D E F G H I J K L M N O P Q R S T U V W X Y Z

Prime Circle - She Always Gets What She Wants tab

Band:  Prime Circle
Song:  She Always Get What She Wants
Album: All or Nothing


Basic Tunning: E A D G B e


Intro

e|--3~-----2~-----0~----0--2-------|
B|--3~-----3~-----0~----1--3-------|
G|--0~-----2~-----0~----0--2-------|
D|--0~-----0~-----2~----2----------|
A|--2~-----0~-----2~----3----------|
E|--3~-----0~-----0~----0----------|


Chorus
e|--------------------------------|
B|--------------------------------|
G|---------6--6---8--8-----4-6----|
D|--4--4---6--6---8--8-----4-6----|
A|--4--4---4--4---6--6-----2-4----|
E|--2--2---x--x---x--x-----x-x----|


Alternative Chorus (Same as the intro but more rythmed or somethin =) )

e|--3-3----22-----00-----00--22---|
B|--3-3----33-----00-----11--33---|
G|--0-0----22-----00-----00--22---|
D|--0-0----00-----22-----22-------|
A|--2-2----00-----22-----33-------|
E|--3-3----00-----00-----00-------|


Guitar 2
Mini Rythm-Solo

e|-10------10------11------10------10------11-|
B|-11----------11------11------11------10-----|
G|-10--10-------------------------------------|
D|--------------------------------------------|
A|--------------------------------------------|
E|--------------------------------------------|


Hi im LullaZ, came from Portugal and its my firt tab
for my acoustic version and hope you like it ;)

And thats all for now, i taked hlf by hear half by Jaques chords (thank you ;) ) and 
my bad english im portuguese so ;)

Please feedback me, and one more time hope it helps you :)

Enjoy =)
Tap to rate this tab
# A B C D E F G H I J K L M N O P Q R S T U V W X Y Z