Song name
# A B C D E F G H I J K L M N O P Q R S T U V W X Y Z

Prime Circle - She Always Gets What She Wants tab

 Hey guys,I nosticed there is no right version so here it is.enjoy

 Intro on piano
 
 After intro
 e--3--3---2--2---0--0---0--2-|
 B--0--0---3--3---0--0---1--3-|
 G--0--0---2--2---0--0---0--2-|
 D--0--0---0--0---2--2---2--0-|
 A--2--2----------2--2---3----|
 E--3--3----------0--0--------|


 Chorus

 e----------------------|
 B----------------------|
 G-------7-7--9-9--5-7--|
 D--5-5--7-7--9-9--5-7--|
 A--5-5--5-5--7-7--3-5--|
 E--3-3-----------------|



 This is basicly the whole song, listen song for rythm
Tap to rate this tab
# A B C D E F G H I J K L M N O P Q R S T U V W X Y Z